Song name
# A B C D E F G H I J K L M N O P Q R S T U V W X Y Z

Artcell - Ghune Khawa Rodh tab

This is the first solo from Ghune Khawa Rodh.
Listen to the song and play it accordingly.

Tabbed by Hasib

/-slide down
\-slide up
>-bend-release-bend
<-bend


E-12-12-12-14-15-15-------------19-17-15-17-14-15-141514-12-14-12-12-|
B-------------------13-12-13-12--------------------------------------|
G--------------------------------------------------------------------|
D--------------------------------------------------------------------|
A--------------------------------------------------------------------|
E--------------------------------------------------------------------|

E------------------------|
B------------------------|
G---11-12-111211-9-7-9-9-|
D-9----------------------|
A------------------------|
E------------------------|

E----------------------------------------------------------------|
B----------------------------------------------------------------|
G---9-11-12-11-9----9-11-14-11-9----9-11-12-11-9----9-11-14-11-9-|
D-9--------------12--------------12--------------12--------------|
A----------------------------------------------------------------|
E----------------------------------------------------------------|

E-------------------------------------------------|
B-------------------------------------------------|
G----9-111211-9-7-9-9/-9\11\12\14\16\14\12\11\9-9-|
D-12----------------------------------------------|
A-------------------------------------------------|
E-------------------------------------------------|

E-----------------------------------------------------------|
B-----------------------------------------------------------|
G-9-11-12-9-------9-11-9----9-9-11-12-9---------------------|
D-----------10-10--------12-------------10-9-10-12-10-------|
A------------------------------------------------------10-7-|
E-----------------------------------------------------------|

E-17>-------------------------------------------------------17--|
B----12-15--------12-13-12-15<12-15-121512---12-----------------|
G---------12-12-14-------------------------14---14-12-14-12-----|
D---------------------------------------------------------------|
A---------------------------------------------------------------|
E---------------------------------------------------------------|
Tap to rate this tab
 
# A B C D E F G H I J K L M N O P Q R S T U V W X Y Z