Song name
# A B C D E F G H I J K L M N O P Q R S T U V W X Y Z

Arthur Brown - I Put A Spell On You tab

                                          Artist - Arthur Brown
                                         ***********************
                                       Song - I Put A Spell On You 
                                      *****************************
                                      Album - Chisholm In My Bosom 
                                     ******************************
                                          Tabbed By - Ayreon77
                                         **********************


           Because there is not really a solo in this track.
  Just little solos in between words, i,m putting the times next to them
  so they may not be in order were the words are, but you have the times, 
                    so you know were they come in.



INTRO - PIANO - Dm C Bb A 
******

---------------------------------------------------
VERSE 1
********
Dm        C             Bb  A                 Dm    C  Bb  A
  I put a spell on you,        because you're mine
         Gm                              F#           Bb  C
Ya gotta stop the things that you do, oh oh me darlin
        A
I ain't lyin.


00:32 - use vol pedal or vol control on guitar
|---------------|
|---------------|
|-12--11--10--9-|
|---------------|
|---------------|
|---------------|


--------------------------------------------------- 
CHORUS 
*******
        Dm              C#         C                       Bm
I can't stand it baby,     I can't stand the way you're always runnin' round
01:00
|-----------|
|-----------|
|--10-11-12-|
|-x---------|
|-----------|
|-----------|

Gm              F#
   I don't care if you don't want me
        Bb        
Coz i,m yours any how

|---b-rp------|
|--15---13-15-|
|-x-----------|
|-------------|
|-------------|
|-------------|

Dm        C             Bb  A                 Dm    C  Bb  A
  I put a spell on you,        because you're mine


01:24       h               h  p
|---10-12-12-13-~~|-12-10-10-12-10------|---h---slow-|
|--x--------------|----------------13-~~|-10-13--b---|
|-x---------------|---------------------|-------12---|
|-----------------|---------------------|------------|
|-----------------|---------------------|------------|
|-----------------|---------------------|------------|


---------------------------------------------------

        Dm            C   Bb       A          Dm                 C    Bb  A
I put a spell on you,     Whoaaa,  Whoaaaa,   you know its true  Babe


---------------------------------------------------
01:41         TRILL..................
|---------------h--p---------------------end of trill---h--p------|
|---------10--10-13-10--------------------------------10-13-10----|
|-9-10-12------------------------------------------------------12-|
|-----------------------------------------------------------------|
|-----------------------------------------------------------------|
|-----------------------------------------------------------------|


--------------------------------------------------- 
BRIDGE 
*******
       Gm                  F#
And it makes no difference where you go, 
             F                Dm
Or what ever you say or do my darlin
           A
You know I never stop tryin

**************************************
Scratch the pleck along the strings
**************************************

---------------------------------------------------
CHORUS
*******
02:05
|---------b----------|
|-10-13--13-~~~~~~~~-|
|--------------------|
|--------------------|
|--------------------|
|--------------------|

    Dm                       C#          C                    Bm
Yeah, I can't stand it baby,      And if all the world should cease to be
02:13
|--brp---------15-|
|-15--13-15-13----|
|-----------------|
|-----------------|
|-----------------|
|-----------------|

       Gm           F#        F             Bb
And at such a dying paradise, draw up every drop of the sea

02:22               b   
|-17-20--17-20--17-20-|
|---------------------|
|---------------------|
|---------------------|
|---------------------|
|---------------------|

        Dm            C     Bb      A               Dm         C    Bb  A
I put a spell on you, Now   babe,   baby,   bacause your mine

02:34                                                     h p
|-------------------------------------h-p-----------5----5-8-5-b-|
|---------------------------5-6-8-6--5-6-5----5-6-8------------8-|
|--------------5-7-7-7-7-7-----------------7---------------------|
|-5-7-7-7-7-7----------------------------------------------------|
|----------------------------------------------------------------|
|----------------------------------------------------------------|

Bb          A
Whoaaa oaa  oaa


---------------------------------------------------
ORGAN SOLO
***********
Dm C Bb A X2

Gm F# F A


02:41          02:49                                   02:59
|-------------|---10-12-13-12-10----10-|------------------brp---------------|
|--s----------|--x---------------13----|---------------13--10---------------|
|-5\7--5------|-x----------------------|----------------------12--11--10--9-|
|--------8--7-|------------------------|-12--10-----------------------------|
|-------------|------------------------|--------13--12----------------------|
|-------------|------------------------|------------------------------------|

03:09
     hold                         bend
     bend                         high  TRILL...........              b
|--b--|------b----|--b-----b----|--b------h--p-----------------------20-|
|-20-20--20-20-17-|-20-20-20-17-|-20----17-20-17--------20-17-20-17-----|
|-----------------|-------------|---------------------------------------|
|-----------------|-------------|---------------------------------------|
|-----------------|-------------|---------------------------------------|
|-----------------|-------------|---------------------------------------|


---------------------------------------------------
CHORUS
*******
Dm                      C#
I love you, I love you, I love you, I love you, 
C          Bm
Lord knows I love you any how

03:26
|-----------|
|--brp------|
|-12--10-12-|
|-----------|
|-----------|
|-----------|

Gm      F#
  And I don't care if you don't want me
        F         A
Coz i,m yours any how

03:33
|-----------|
|--15-15----|
|-x------15-|
|-----------|
|-----------|
|-----------|

        Dm             
I put a spell on you
C
Spell on you
Bb
Spell on you

03:41
|--15-13----------------|
|-x------15-13-15-13----|
|--------------------14-|
|-----------------------|
|-----------------------|
|-----------------------|

A               Dm    C  Bb  A
Spell on you, nowwww

03:45
|------------8----8----8----8-----8-----8---------b--r---b-|
|------8-10----10---10---10---10----10----10--13-13-----15-|
|--7-9-----------------------------------------------------|
|-x--------------------------------------------------------|
|----------------------------------------------------------|
|----------------------------------------------------------|

               Dm
Because you're mine
      


A Classic Track.

Enjoy...........
Tap to rate this tab
 
# A B C D E F G H I J K L M N O P Q R S T U V W X Y Z