Song name
# A B C D E F G H I J K L M N O P Q R S T U V W X Y Z

Arthur Brown - Take A Chance chords

Highlighted       Show chord diagrams
-----------------------------------------------------------------------------
                                          Artist - Arthur Brown 
                                         ***********************
                                          Song - Take A Chance  
                                         **********************
                                             Album - Dance  
                                            ***************
                                          Tabbed By - Ayreon77
                                         **********************
-----------------------------------------------------------------------------
Tuning = Standard

INTRO - Am Dm F G
******

e|---------------|-----------|-----------|-----------|-----------|----------|
B|---------------|-----------|-----------|-----------|-----------|----------|
G|---------------|-----------|-----------|-----------|-----------|----------|
D|-7---7-5-------|-7-5-------|-7-5-------|-------5-7-|-7-5-------|-7-5------|
A|---------8-7-5-|-----8-7-8-|-----8-7-5-|-5-7-8-----|-----8-7-5-|-----8-7-8|
E|---------------|-----------|-----------|-----------|-----------|----------|


e|-----------|
B|-----------|
G|-----------|
D|-7-5-------|
A|-----8-7-5-|
E|-----------|


---------------------------------------------------------------
VERSE 1
********
Am                                  Dm
As you suck your milkshake, in that very fine cafe
F                                        G
Don't forget that theres a science, that line off far away
    Am                                 Dm
Remember what the gypsys sayin, as you fixed her with your eyes
     F                     
Your out of date, but it's not too late
G
come on now get wise


---------------------------------------------------------------
CHORUS
*******
Am                 G
Ohhh right, if you want to take a chance
Am                         F
Make it tonight, take your life in your hands


---------------------------------------------------------------
BRIDGE
*******
A
Thats seeing inside of you
F
There going to tell you, what to do
G                             Am
Fancy baby take a chance with me

D F G

e|-----------------|-----------|-----------|-----------|
B|-----------------|-----------|-----------|-----------|
G|-----------------|-----------|-----------|-----------|
D|-7-----7-5-------|-7-5-------|-7-5-------|-------5-7-|
A|-----------8-7-5-|-----8-7-8-|-----8-7-5-|-5-7-8-----|
E|-----------------|-----------|-----------|-----------|


---------------------------------------------------------------
VERSE 2
********
Am 
Hey, check it out, take a looks around
Dm
See whats going on
    F
The world is singing you a tune
G
Won't you sing along
     Am                       e|-5---5---5---5---|  
When children of the universe B|---8---6---5-----|                                       
Dm                            G|---------------7-|    
Mother nature is our friend   D|-----------------|                  
    F                         A|-----------------|  
The spirit need yea, open up  E|-----------------|                       
G
Let the melody begin


---------------------------------------------------------------
CHORUS
*******
Am                 G
Ohhh right, if you want to take a chance
        Am       G
Take it tonight, take your life in your hands


---------------------------------------------------------------
BRIDGE
*******
A
All I have is more to come
F
Plenty more were that came from
G
Come on baby take a chance with me

Am Dm F G

e|---------------|-----------|-----------|-----------|-----------|----------|
B|---------------|-----------|-----------|-----------|-----------|----------|
G|---------------|-----------|-----------|-----------|-----------|----------|
D|-7---7-5-------|-7-5-------|-7-5-------|-------5-7-|-7-5-------|-7-5------|
A|---------8-7-5-|-----8-7-8-|-----8-7-5-|-5-7-8-----|-----8-7-5-|-----8-7-8|
E|---------------|-----------|-----------|-----------|-----------|----------|


e|-----------|-----------|
B|-----------|-----------|
G|-----------|-----------|
D|-7-5-------|-------5-7-|
A|-----8-7-5-|-5-7-8-----|
E|-----------|-----------|


---------------------------------------------------------------
KEY CHANGE
VERSE 3
********
D
I know that your life is changing
G
Oh so very fast
    D
But come on baby, you know what to do

Hey now now just, open up your heart in mine

Let fall away the past now


---------------------------------------------------------------
BRIDGE
*******
A
All I have is more to come
F
Plenty more were that came from
G
Come on baby take a chance with me

e|-----------|
B|-----------|fade 
G|-----------| this
D|-7-5-------|   out
A|-----8-7---|    with
E|---------5-|     outro


---------------------------------------------------------------
OUTRO
******
Am
Come on baby, 

You better not think, to make yourself feel good

Theres nothing you can do to make it if you wanna try

Oh come on now baby get on with the digging in the side

Get in there, get in here, make it yourselves

It seems alright
Come on
Ohhh
No come on yea
Ohhh come on


ENJOY.........
Tap to rate this tab
 
# A B C D E F G H I J K L M N O P Q R S T U V W X Y Z