Song name
# A B C D E F G H I J K L M N O P Q R S T U V W X Y Z

As Cities Burn - Daughter tab

Tuning: standard
Capo on the sixth fret

           C                    Am
It's a shame what I thought of her
             F                   G
when I saw her that way.
                 C                         Am
It didn't change what you thought of her.
                               F                                G
She's been your daughter since she was made.

                      C                       Am
Since I was made, I've been leaving.
                    F                                 G
I'd say I'd change but I wouldn't believe it.
                       C                      Am
It's 'cause my legs, they don't forget.
                               F                                  G
When they find a way out, they'll always take it.

C
Oooh we don't
Am
Oooh we don't
F
we don't know how we got here,
       G
the way is overgrown.
C
Oooh we don't
Am
Oooh we don't
F                               G
we don't know how we became this.

( take capo off for the solo )
e|-----------------------------------------------------------------------------|
B|-----------2----4--------------------4-2---4-2-------------------------------|
G|-2-1-2-3--------2-1----------4-3---------------------------------------------|
D|----------------------4-------4----------------------------------------------|
A|------------------------6---6------------------------------------------------|
E|-----------------------------------------------------------------------------|

e|-----------------------------------------------------------------------------|
B|-7-9-11-7-9-4----4-2---------------------------------------------------------|
G|-------------------------3-1--1-3-1------------------------------------------|
D|-----------------------------4-------4-1-------------------------------------|
A|-----------------------------------------------------------------------------|
E|-----------------------------------------------------------------------------|


( capo back on the sixth fret )

                   C                      Am
She has a name but I don't have to know
                      F                      G
'cause all I'm after is all she has to show.
                    C                   Am
We cannot save, we can't even slow
                   F                         G
our loss of innocence every new child has to grow.

C
Oooh we don't
Am
Oooh we don't
F
we don't know how we got here,
       G
the way is overgrown.
C
Oooh we don't
Am
Oooh we don't
F                               G
we don't know how we became this.
Tap to rate this tab
 
# A B C D E F G H I J K L M N O P Q R S T U V W X Y Z