Song name
# A B C D E F G H I J K L M N O P Q R S T U V W X Y Z

As I Lay Dying - Vacancy tab

Band: As I Lay Dying
Song: Vacancy
Album: The Powerless Rise

Tuning: Drop C# (C#G#C#F#A#D#)

Intro
|-------------------------------------------------------|
|-------------------------------------------------------|
|-------------------------------------------------------|
|-------------------------------------------------------|
|--0000--0-0--0000--0-0--0000--0-0----------------------|
|--0000--0-0--0000--0-0--0000--0-0----------------------|


|-----------------------------------------------------------------------|
|-----------------------------------------------------------------------|
|-----------------------------------------------------------------------|
|-----------------------------------------------------------------------|
|--777777777777555555555555777777888888---------------------------------|
|-----------------------------------------------------------------------|

|-----------------------------------------------------------------------|
|-----------------------------------------------------------------------|
|-----------------------------------------------------------------------|
|-----------------------------------------------------------------------|
|--888888101010121212121212121212101010---------------------------------|
|-----------------------------------------------------------------------|

Solo (will tab later)

|--------------------------------------------------|
|--------------------------------------------------|
|--------------------------------------------------|
|--------------------------------------------------|
|--------8-5-0-1-5--------7-8-10-5-----------------|
|--000---------------000---------------------------|

|-------------------------------------------|
|-------------------------------------------|
|-------------------------------------------|
|-------------------------------------------|
|--------8-5-0-1-5----8---7-----------------|
|--000---------------8---0------------------|

I'll tab the rest of the song later, I'm still working on it. Enjoy. :)
Tap to rate this tab
 
# A B C D E F G H I J K L M N O P Q R S T U V W X Y Z