Song name
# A B C D E F G H I J K L M N O P Q R S T U V W X Y Z

As I Lay Dying - 94 Hours tab

Help us improve GuitareTab! Take a short survey!
94 hours: As I Lay Dying
Tuning: CGCFAD

^ = bend
p = pull
h = hammer
/ = slide
p/ = pickslide


Guitar 1 (0:06)
D|-------------------------------------------------------------|
A|-------------------------------------------------------------|
F|-------------------------------------------------------------|
C|--3p0-7p0-3p0-5p0-3p0-2h3p2--0--3p0-7p0-3p0-5p0-3p0--555--0--|x6
G|-----------------------------0-----------------------333--0--|
C|-----------------------------0----------------------------0--|
                               .                            .


Guitar 2 (0:14)
D|-------------------------------------------------------------|
A|-------------------------------------------------------------|
F|-------------------------------------------------------------|
C|--3p0-7p0-3p0-5p0-3p0-2h3p2--0--3p0 7p0-3p0-5p0-3p0--555--0--|x2
G|-----------------------------0-----------------------333--0--|
C|-----------------------------0----------------------------0--|
                               .                            .
D|---------------------------------------------------------------|
A|---------------------------------------------------------------|
F|---------------------------------------------------------------|
C|--------7p0-----5p0-------------------7p0-----5p0--------------|x2
G|----8p0-----8p0-----8p0-7h8p7--5--8p0-----8p0-----8p0--777--5--|
C|--0----------------------------------------------------777--5--|



Guitar 1 (0:32)
D|--------------------|
A|--------------------|
F|--7p0-10p0-7p0-9p0--|
C|--------------------|x3
G|--------------------|
C|--------------------|



Guitar 2 (0:32)
D|--------------------|
A|--------------------|
F|--------------------|
C|--0~----0-----------|
G|--0~----0-----------|
C|--0~----0-----------|
          .


Guitar 1 & 2 (0:35)
D|--------17--|
A|--------15--|
F|--7---------|
C|--5--0------|
G|-----0------|
C|-----0------|
     
      

Guitar 1 & 2 (0: 36)
D|--------------------------------------------17---------------|
A|--------------------------------------------15---------------|
F|-----------7p0-10p0-7p0-9p0-----------7----------------------|
C|--0-00-00--------------------0000-00--5--0-------------------|x4
G|--0-00-00--------------------0000-00-----0-------------------|
C|--0-00-00--------------------0000-00-----0-------------------|



Guitar 1 & 2 (0:52)
D|-------------------------------------------------------------|
A|-------------------------------------------------------------|
F|-------------------------------------------------------------|
C|--0-00-00----0-00-00--p/-------------------------------------|
G|--0-00-00----0-00-00--p/-------------------------------------|
C|--0-00-00----0-00-00--p/-------------------------------------|



Guitar 1 & 2 (0:57)
D|----------------------|
A|----------------------|
F|----------------------|
C|--0-00-00----0000-00--|x7
G|--0-00-00----0000-00--|
C|--0-00-00----0000-00--|

D|--------------------|
A|--------------------|
F|--------------------|
C|--0-00-00----0-0-0--|
G|--0-00-00----0-0-0--|
C|--0-00-00----0-0-0--|
               . . .


Guitar 1 (1:12)
D|-------------------------------------------------------------|
A|-------------------------------------------------------------|
F|-------------------------------------------------------------|
C|--3p0-7p0-3p0-5p0-3p0-2h3p2--0--3p0-7p0-3p0-5p0-3p0--555--0--|x4
G|-----------------------------0-----------------------333--0--|
C|-----------------------------0----------------------------0--|
                               .                            .


Guitar 2 (1:12)
D|-------------------------------------------------------------|
A|-------------------------------------------------------------|
F|-------------------------------------------------------------|
C|--3p0-7p0-3p0-5p0-3p0-2h3p2--0--3p0 7p0-3p0-5p0-3p0--555--0--|x2
G|-----------------------------0-----------------------333--0--|
C|-----------------------------0----------------------------0--|
                               .                            .
D|---------------------------------------------------------------|
A|---------------------------------------------------------------|
F|---------------------------------------------------------------|
C|--------7p0-----5p0-------------------7p0-----5p0--------------|x2
G|----8p0-----8p0-----8p0-7h8p7--5--8p0-----8p0-----8p0--777--5--|
C|--0----------------------------------------------------777--5--|



Guitar 1 (1:31)
D|----------------------|
A|----------------------|
F|----------------9-10--|
C|--0-00--9-10----x-x---|
G|--0-00--7-8-----7-8---|
C|--0-00----------------|

D|------------------------------------------------|
A|------------------------------------------------|
F|--------------12-10-9-10-9----------------------|
C|--0-00--9-10---------------12-10-9--------------|
G|--0-00--7-8-------------------------------------|
C|--0-00------------------------------------------|

D|--------------------------------------------|
A|--------------------------------------------|
F|--12-10-9-10------------------9h10p9--------|
C|-------------12-10-9-10-12-10--------12-10--|x2
G|--------------------------------------------|
C|--------------------------------------------|



Guitar 2 (1:31)
D|----------------------|
A|----------------------|
F|----------------9-10--|
C|--0-00--9-10----x-x---|x4
G|--0-00--7-8-----7-8---|
C|--0-00----------------|



Guitar 1 (1:51)
D|-------------------------------------------------------------|
A|-------------------------------------------------------------|
F|-------------------------------------------------------------|
C|--0~----0~----8~--10~--7~------------------------------------|
G|--0~----0~----8~--10~--7~------------------------------------|
C|--0~----0~----8~--10~--7~------------------------------------|

D|---------------------------------------------------|
A|---------------------------------------------------|
F|--10-9----12-10/9----12--10-9----12-10/9-----------|
C|-------10---------10----------10---------10--------|_____
G|---------------------------------------------------|     |
C|---------------------------------------------------|     |
(5th time, let 0~ ring)                                    |x5 
|----------------------------------------------------|     |
|----------------------------------------------------|_____|
|--12-10-9----12-10-9~--12p10-9----14-12-10-9--------|
|----------10-------------------10-------------(0~)--|
|----------------------------------------------(0~)--|
|----------------------------------------------(0~)--|



Guitar 2 (1:51)
D|-------------------------------------------------------------|
A|-------------------------------------------------------------|
F|-------------------------------------------------------------|
C|--0~----0~----8~--10~--7~------------------------------------|x2
G|--0~----0~----8~--10~--7~------------------------------------|
C|--0~----0~----8~--10~--7~------------------------------------|

D|-------------------------------------------------------------|
A|-------------------------------------------------------------|
F|-------------------------------------------------------------|
C|--000--000--000--888--101010--777----------------------------|x3
G|--000--000--000--888--101010--777----------------------------|
C|--000--000--000--888--101010--777----------------------------|

D|-------------------------------------------------------------|
A|-------------------------------------------------------------|
F|-------------------------------------------------------------|
C|--000--000--000--888--101010--777--0~------------------------|
G|--000--000--000--888--101010--777--0~------------------------|
C|--000--000--000--888--101010--777--0~------------------------|

The End

Special thanks to: xdespairfactor and godsmackthatkid
Related for 94 Hours tab