Song name
# A B C D E F G H I J K L M N O P Q R S T U V W X Y Z

As I Lay Dying - Seperation tab

this is just the main part of the intro. i haven't figured out the rest.

/=slide
.=palm mute

first guitar
D-------------------------------------------------------|
A-------------------------------------------------------|
G----------5-7-7/8--------5-7-7/8-7-5-------------------|repeat
D-----0-------------0-----------------8----------------|
G------------------------------------------------------|
C------------------------------------------------------|

second guitar
D-------------------------------------------------------|
A-----------5-7-7/8-------5-7-7/8-7-5-------------------|
G-----0-------------0-----------------8-----------------|repeat
D-------------------------------------------------------|
G-------------------------------------------------------|
C-------------------------------------------------------|
Tap to rate this tab
# A B C D E F G H I J K L M N O P Q R S T U V W X Y Z