Guitaretab - guitar tabs
Song name
# A B C D E F G H I J K L M N O P Q R S T U V W X Y Z

As I Lay Dying - This Is Who We Are tab

-------------------------------------------------------------------------------
This is Who We Are(Piano Ending) Ė As I Lay Dying
-------------------------------------------------------------------------------
Tabbed by: Trevor Burnette
Email: shibie14@yahoo.com

Tuning: standard

This is just the piano ending tabbed onto a guitar.  I donít have the background notes 
are played on the piano but this is the lead riff.


e|---------------------------------------------------------------------------|
B|-12/15~-----15--15--13--13-------------------------------------------------|
G|----------------------------15--14~------12--12--14--14--12-14-------------|
D|---------------------------------------------------------------------------|
A|---------------------------------------------------------------------------|
E|---------------------------------------------------------------------------|

e|---------------------------------------------------------------------------|
B|----15~-----15--15--13--13------17----17h18-15~----------------------------|
G|----------------------------15---------------------------------------------|
D|---------------------------------------------------------------------------|
A|---------------------------------------------------------------------------|
E|---------------------------------------------------------------------------|

e|---------------------------------------------------------------------------|
B|----15~-----15--15--13--13-------------------------------------------------|
G|----------------------------15--14~------12--12--14--14--12-14-------------|
D|---------------------------------------------------------------------------|
A|---------------------------------------------------------------------------|
E|---------------------------------------------------------------------------|

e|---------------------------------------------------------------------------|
B|----15~-----15--15--13--13------17----17h18-15~----------------------------|
G|----------------------------15---------------------------------------------|
D|---------------------------------------------------------------------------|
A|---------------------------------------------------------------------------|
E|---------------------------------------------------------------------------|


e|---------------------------------------------------------------------------|
B|------------------------------------------15-13----------------------------|
G|-----------------------14----15----17-----------15-14~---------------------|
D|--12-14-12-15-12-17-12----12----12----12-----------------------------------|
A|---------------------------------------------------------------------------|
E|---------------------------------------------------------------------------|
[ Tab from: http://www.guitaretab.com/a/as-i-lay-dying/159722.html ]
e|---------------------------------------------------------------------------|
B|---------------------------------------------------------------------------|
G|-12--12-14--14-12-14-------------------------------------------------------|
D|---------------------------------------------------------------------------|
A|---------------------------------------------------------------------------|
E|---------------------------------------------------------------------------|

e|---------------------------------------------------------------------------|
B|------------------------------------------15-13----------------------------|
G|-----------------------14----15----17-----------15-14~---------------------|
D|--12-14-12-15-12-17-12----12----12----12-----------------------------------|
A|---------------------------------------------------------------------------|
E|---------------------------------------------------------------------------|


e|---------------------------------------------------------------------------|
B|---------------------------------------------------------------------------|
G|---------------------------------------------------------------------------|
D|--17-15-14-17-14-15-14-15--------------------------------------------------|
A|---------------------------------------------------------------------------|
E|---------------------------------------------------------------------------|

e|---------------------------------------------------------------------------|
B|------------------------------------------15-13----------------------------|
G|-----------------------14----15----17-----------15-14~---------------------|
D|--12-14-12-15-12-17-12----12----12----12-----------------------------------|
A|---------------------------------------------------------------------------|
E|---------------------------------------------------------------------------|

e|---------------------------------------------------------------------------|
B|---------------------------------------------------------------------------|
G|-12--12-14--14-12-14-------------------------------------------------------|
D|---------------------------------------------------------------------------|
A|---------------------------------------------------------------------------|
E|---------------------------------------------------------------------------|

e|---------------------------------------------------------------------------|
B|------------------------------------------15-13----------------------------|
G|-----------------------14----15----17-----------15-14~--------14h15-12~----|
D|--12-14-12-15-12-17-12----12----12----12-------------------12--------------|
A|---------------------------------------------------------------------------|
E|---------------------------------------------------------------------------|


e|---------------------------------------------------------------------------|
B|---------------------------------------------------------------------------|
G|---7~----------------------------------------------------------------------|
D|---5~----------------------------------------------------------------------|
A|---5~----------------------------------------------------------------------|
E|---------------------------------------------------------------------------|

| /  slide up
| \  slide down
| h  hammer-on
| p  pull-off
| ~  vibrato
| +  harmonic
| x  Mute note
===============================================================================
Related for This Is Who We Are tab
This Is Who We Are chords by As I Lay Dying