Song name
# A B C D E F G H I J K L M N O P Q R S T U V W X Y Z

As I Lay Dying - Confined tab

Ok so... Alot of people have pretty much got the entire tab for this song right, Im just 
to fix little errors and make it perfect.

KEY:
*-harmonic
.-palm mute
p-pull off
h-hammer on
XXX(etc)-pick slide
PH-pinch harmonic
~-vibrato

INTRO:
Guitar 1 + 2
D|------------------|
A|------------------|
F|------------------|
C|------------------|
G|-5*---------------|
C|------------------|

Guitar 1
D|------------------------------------------------------------------|
A|------------------------------------------------------------------|
F|------------------------------------------------------------------|
C|------------------------------------------------------------------|
G|-000-0-0-0-0-000-0-0-0-0-000-0-0-000-0-0-0-0-000-0-0-0-0-000-0-0--|
C|-000-0-0-0-0-000-0-0-0-0-000-0-0-000-0-0-0-0-000-0-0-0-0-000-0-0--|
   ... . . . . ... . . . . ... . . ... . . . . ... . . . . ... . .
Guitar 2
D|------------------------------------------------------------------|
A|------------------------------------------------------------------|
F|------------------------------------------------------------------|
C|------------------------------------------------------------------|
G|---------------------------------000-0-0-0-0-000-0-0-0-0-000-0-0--|
C|---------------------------------000-0-0-0-0-000-0-0-0-0-000-0-0--|
                                   ... . . . . ... . . . . ... . .

PRE-VERSE:
Guitar 1
D|------------------------------------------------------------------|
A|------------------------------------------------------------------|
F|------------------------------------------------------------------|
C|------------------------------------------------------------------|
G|-----5---7-------8---10---8p7-3h5-----5---7-------8---7---8p7-3h5-|
C|-0-0---0---0-0-0---0----0---------0-0---0---0-0-0---0---0---------| X2
   . .   .   . . .   .    .         . .   .   . . .   .   .
Guitar 2
D|------------------------------------------------------------------|
A|------------------------------------------------------------------|
F|------------------------------------------------------------------|
C|-0--------------------------------0-------------------------------|
G|-0--------------------------------0-------------------------------|
C|-0--------------------------------0---------------XXXXXXXXXXXXXXX-| X2
                                                   -only 2nd repeat-

VERSE:
Guitar 1
D|------------------------------------------------------------------|
A|------------------------------------------------------------------|
F|------------------------------------------------------------------|
C|------------------------------------------------------------------|
G|-----5---7-------8---10---8p7-3h5-----5---7-------8---7---8p7-3h5-|
C|-0-0---0---0-0-0---0----0---------0-0---0---0-0-0---0---0---------| X2
   . .   .   . . .   .    .         . .   .   . . .   .   .
Guitar 2
D|------------------------------------------------------------------|
A|------------------------------------------------------------------|
F|------------------------------------------------------------------|
C|------------------------------------------------------------------|
G|-0-0-0-0-0-0-0-0-0-0--0-0-0-0-0-0-0-0-0-0-0-0-0-0-0-0-0-0-0-0-0-0-|
C|-0-0-0-0-0-0-0-0-0-0--0-0-0-0-0-0-0-0-0-0-0-0-0-0-0-0-0-0-0-0-0-0-| X2
   . . . . . . . . . .  . . . . . . . . . . . . . . . . . . . . . .

Guitar 1
D|------------------------------------------------------------------|
A|------------------------------------------------------------------|
F|------------------------------------------------------------------|
C|------------------------------------------------------------------|
G|-----5---7-------8---10---8p7-3h5-----5---7-------8---7---8p7-3h5-|
C|-0-0---0---0-0-0---0----0---------0-0---0---0-0-0---0---0---------|
   . .   .   . . .   .    .         . .   .   . . .   .   .
Guitar 2
D|------------------------------------------------------------------|
A|------------------------------------------------------------------|
F|------------------------------------------------------------------|
C|------------------------------------------------------------------|
G|-0-0-------0-0-0----------000000000-0-------0-0-0---------00000000|
C|-0-0-------0-0-0----------000000000-0-------0-0-0---------00000000|
   . .       . . .          ......... .       . . .         ........

Guitar 1
D|------------------------------------------------------------------|
A|------------------------------------------------------------------|
F|------------------------------------------------------------------|
C|------------------------------------------------------------------|
G|-----5---7-------8---10---8p7-3h5-----5---7-------8---7---7~------|
C|-0-0---0---0-0-0---0----0---------0-0---0---0-0-0---0---0---------|
   . .   .   . . .   .    .         . .   .   . . .   .   . PH
Guitar 2
D|------------------------------------------------------------------|
A|------------------------------------------------------------------|
F|------------------------------------------------------------------|
C|------------------------------------------------------------------|
G|-0-0-------0-0-0----------000000000-0-------0-0-0-000-000-3~------|
C|-0-0-------0-0-0----------000000000-0-------0-0-0-000-000---------|
   . .       . . .          ......... .       . . . ... ... PH

Guitar 1
D|------------------------------------------------------------------|
A|------------------------------------------------------------------|
F|------------------------------------------------------------------|
C|------------------------------------------------------------------|
G|-----5---7-------8---10---8p7-3h5-----5---7-------8---7---8p7-3h5-|
C|-0-0---0---0-0-0---0----0---------0-0---0---0-0-0---0---0---------|
   . .   .   . . .   .    .         . .   .   . . .   .   .
Guitar 2
D|------------------------------------------------------------------|
A|------------------------------------------------------------------|
F|------------------------------------------------------------------|
C|------------------------------------------------------------------|
G|-0-0-------0-0-0----------000000000-0-------0-0-0---------00000000|
C|-0-0-------0-0-0----------000000000-0-------0-0-0---------00000000|
   . .       . . .          ......... .       . . .         ........

Guitar 1
D|------------------------------------------------------------------|
A|------------------------------------------------------------------|
F|------------------------------------------------------------------|
C|------------------------------------------------------------------|
G|-----5---7-------8---10---8p7-3h5-----5---7-------8---7---8p7-3---|
C|-0-0---0---0-0-0---0----0---------0-0---0---0-0-0---0---0---------|
   . .   .   . . .   .    .         . .   .   . . .   .   .
Guitar 2
D|------------------------------------------------------------------|
A|------------------------------------------------------------------|
F|------------------------------------------------------------------|
C|------------------------------------------------------------------|
G|-0-0-------0-0-0----------000000000-0-------0-0-0---------000000--|
C|-0-0-------0-0-0----------000000000-0-------0-0-0---------000000--|
   . .       . . .          ......... .       . . .         ......

PRE-CHORUS
Guitar 1 + 2
D|-----------------------------------------------------------------------|
A|-----------------------------------------------------------------------|
F|-----------------------------------------------------------------------|
C|-0---------------------------------------------------------------------|
G|-0------0-000-000---8---7-0-0-000---10---8-0-0-000---1---0-------0-----|
C|-0------0-000-000-0---0---0-0-000-0----0---0-0-000-0---0---0-5-0---5-3-|
          . ... ... .   .   . . ... .    .   . . ... .   .   .   .

Guitar 1
D|------------------------------------------------------------------|
A|------------------------------------------------------------------|
F|------------------------------------------------------------------|
C|-----------------------------------7---------------------------3--|
G|-0-0-000-000---8---7-0-0-000-5h8p5---0-0-000---1---0-------0------|
C|-0-0-000-000-0---0---0-0-000---------0-0-000-0---0---0-5-0---5----|
     . ... ... .   .   . . ...         . . ... .   .   .   .
Guitar 2
D|------------------------------------------------------------------|
A|------------------------------------------------------------------|
F|------------------------------------------------------------------|
C|-----------------------------------7---------------------------3--|
G|-0-0-000-000---8---7-0-0-000-7h8p5---0-0-000---1---0-------0------|
C|-0-0-000-000-0---0---0-0-000---------0-0-000-0---0---0-5-0---5----|
     . ... ... .   .   . . ...         . . ... .   .   .   .

Guitar 1 + 2
D|------------------------------------------------------------------|
A|------------------------------------------------------------------|
F|------------------------------------------------------------------|
C|------------------------------------------------------------------|
G|-0-000-000-000-8---7-0-000-000-10---8-0-000-000-1---0-------0-----|
C|-0-000-000-000---0---0-000-000----0---0-000-000---0---0-5-0---5-3-|
     ... ... ...   .   . ... ...    .   . ... ...   .   .   .

Guitar 1
D|------------------------------------------------------------------|
A|------------------------------------------------------------------|
F|------------------------------------------------------------------|
C|-----------------------------------7---------------------------3--|
G|-0-000-000-000-8---7-0-000-005h8p5---0-000-000-1---0-------0------|
C|-0-000-000-000---0---0-000-00--------0-000-000---0---0-5-0---5----|
     ... ... ...   .   . ... ..        . ... ...   .   .   .
Guitar 2
D|------------------------------------------------------------------|
A|------------------------------------------------------------------|
F|------------------------------------------------------------------|
C|-----------------------------------7------------------------------|
G|-0-000-000-000-8---7-0-000-007h8p5---0-000-000-1---0-------0---3--|
C|-0-000-000-000---0---0-000-00--------0-000-000---0---0-5-0---5----|
     ... ... ...   .   . ... ..        . ... ...   .   .   .

CHORUS:
Guitar 1
D|------------------------------------------------------------------|
A|------------------------------------------------------------------|
F|------------------------------------------------------------------|
C|-------------7---5---------5---7-------------7---5---------5------|
G|-----5---8-----------5h8-------------5---8-----------5h8-------5--|
C|-8-8---8---8---8---5-----5---5---0-0---0---0---0---0-----0---0----| X4
   . .   .   .   .   .     .   .   . .   .   .   .   .     .   .
Guitar 2
D|------------------------------------------------------------------|
A|------------------------------------------------------------------|
F|------------------------------------------------------------------|
C|------------------------------------------------------------------|
G|-8-8-8-8-8-8-8-8-5-5-5-5-5-5-5-5-0-0-0-0-0-0-0-0-0-0-0-0-0-0-0-0--|
C|-8-8-8-8-8-8-8-8-5-5-5-5-5-5-5-5-0-0-0-0-0-0-0-0-0-0-0-0-0-0-0-0--|
   . . . . . . . . . . . . . . . . . . . . . . . . . . . . . . . .
D|------------------------------------------------------------------|
A|------------------------------------------------------------------|
F|------------------------------------------------------------------|
C|------------------------------------------------------------------|
G|-3-3-3-3-3-3-3-3-5-5-5-5-5-5-5-5-0-0-0-0-0-0-0-0------------------|
C|-3-3-3-3-3-3-3-3-5-5-5-5-5-5-5-5-0-0-0-0-0-0-0-0-XXXXXXXXXXXXXXX--|
   . . . . . . . . . . . . . . . . . . . . . . . .
D|------------------------------------------------------------------|
A|------------------------------------------------------------------|
F|------------------------------------------------------------------|
C|------------------------------------------------------------------|
G|------------------------------------------------------------------|
C|-8888888888888888555555555555555500000000000000000000000000000000-|

D|------------------------------------------------------------------|
A|------------------------------------------------------------------|
F|------------------------------------------------------------------|
C|------------------------------------------------------------------|
G|------------------------------------------------------------------|
C|-3333333333333333888888888888888800000000000000000000000000000000-|

Bridge:
Guitar 1                             Guitar 2
D|---------------------------------| D|---------------------------------|
A|---------------------------------| A|---------------------------------|
F|---------------------------------| F|---------------------------------|
C|-------------7---5---------5-----| C|-8-----------7---5---------------|
G|-----5---8-----------5h8-------5-| G|-8-----------7---5---------------|
C|-8-8---8---8---8---5-----5---5---| C|-8-----------7---5---------------|
   . .   .   .   .   .     .   .

VERSE:
Guitar 1
D|------------------------------------------------------------------|
A|------------------------------------------------------------------|
F|------------------------------------------------------------------|
C|------------------------------------------------------------------|
G|-----5---7-------8---10---8p7-3h5-----5---7-------8---7---8p7-3h5-|
C|-0-0---0---0-0-0---0----0---------0-0---0---0-0-0---0---0---------| X2
   . .   .   . . .   .    .         . .   .   . . .   .   .
Guitar 2
D|------------------------------------------------------------------|
A|------------------------------------------------------------------|
F|------------------------------------------------------------------|
C|------------------------------------------------------------------|
G|-0-0-0-0-0-0-0-0-0-0--0-0-0-0-0-0-0-0-0-0-0-0-0-0-0-0-0-0-0-0-0-0-|
C|-0-0-0-0-0-0-0-0-0-0--0-0-0-0-0-0-0-0-0-0-0-0-0-0-0-0-0-0-0-0-0-0-|
   . . . . . . . . . .  . . . . . . . . . . . . . . . . . . . . . .
D|------------------------------------------------------------------|
A|------------------------------------------------------------------|
F|------------------------------------------------------------------|
C|------------------------------------------------------------------|
G|-0-0-0-0-0-0-0-0-0-0--0-0-0-0-0-0-0-0-0-0-0-0-0-0-0-0-0-0---------|
C|-0-0-0-0-0-0-0-0-0-0--0-0-0-0-0-0-0-0-0-0-0-0-0-0-0-0-0-0-XXXXXXX-|
   . . . . . . . . . .  . . . . . . . . . . . . . . . . . .

Guitar 1
D|------------------------------------------------------------------|
A|------------------------------------------------------------------|
F|------------------------------------------------------------------|
C|------------------------------------------------------------------|
G|-000-5---7-0-000-8---10---8p7-3h5-000-5---7-0-000-8---7---8p7-3h5-|
C|-000---0---0-000---0----0---------000---0---0-000---0---0---------| X2
   ...   .   . ...   .    .         ...   .   . ...   .   .
Guitar 2
D|------------------------------------------------------------------|
A|------------------------------------------------------------------|
F|------------------------------------------------------------------|
C|--------------------------------------------------7---5---7p5-2h3-|
G|-000-5---7-0-000-8---10---8p7-3h5-000-5---7-0-000-----------------|
C|-000---0---0-000---0----0---------000---0---0-000---0---0---------| X2
   ...   .   . ...   .    .         ...   .   . ...   .   .

CHORUS:
Guitar 1
D|------------------------------------------------------------------|
A|------------------------------------------------------------------|
F|------------------------------------------------------------------|
C|-------------7---5---------5---7-------------7---5---------5------|
G|-----5---8-----------5h8-------------5---8-----------5h8-------5--|
C|-8-8---8---8---8---5-----5---5---0-0---0---0---0---0-----0---0----| X4
   . .   .   .   .   .     .   .   . .   .   .   .   .     .   .
Guitar 2
D|------------------------------------------------------------------|
A|------------------------------------------------------------------|
F|------------------------------------------------------------------|
C|------------------------------------------------------------------|
G|-8-8-8-8-8-8-8-8-5-5-5-5-5-5-5-5-0-0-0-0-0-0-0-0-0-0-0-0-0-0-0-0--|
C|-8-8-8-8-8-8-8-8-5-5-5-5-5-5-5-5-0-0-0-0-0-0-0-0-0-0-0-0-0-0-0-0--|
   . . . . . . . . . . . . . . . . . . . . . . . . . . . . . . . .
D|------------------------------------------------------------------|
A|------------------------------------------------------------------|
F|------------------------------------------------------------------|
C|------------------------------------------------------------------|
G|-3-3-3-3-3-3-3-3-5-5-5-5-5-5-5-5-0-0-0-0-0-0-0-0------------------|
C|-3-3-3-3-3-3-3-3-5-5-5-5-5-5-5-5-0-0-0-0-0-0-0-0-XXXXXXXXXXXXXXX--|
   . . . . . . . . . . . . . . . . . . . . . . . .
D|------------------------------------------------------------------|
A|------------------------------------------------------------------|
F|------------------------------------------------------------------|
C|------------------------------------------------------------------|
G|------------------------------------------------------------------|
C|-8888888888888888555555555555555500000000000000000000000000000000-|

D|------------------------------------------------------------------|
A|------------------------------------------------------------------|
F|------------------------------------------------------------------|
C|------------------------------------------------------------------|
G|------------------------------------------------------------------|
C|-3333333333333333888888888888888800000000000000000000000000000000-|

Bridge:
Guitar 1                             Guitar 2
D|---------------------------------| D|---------------------------------|
A|---------------------------------| A|---------------------------------|
F|---------------------------------| F|---------------------------------|
C|-------------7---5---------5-----| C|-8-----------7---5---------------|
G|-----5---8-----------5h8-------5-| G|-8-----------7---5---------------|
C|-8-8---8---8---8---5-----5---5---| C|-8-----------7---5---------------|
   . .   .   .   .   .     .   .

OUTRO:
Guitar 1 + 2
D|------------------------------------------------------------------|
A|------------------------------------------------------------------|
F|------------------------------------------------------------------|
C|------------------------------------------------------------------|
G|-0-0-000-000-0-0-0-0-0-0-0-0-000-0-0-000-000---1---0-------0------|
C|-0-0-000-000-0-0-0-0-0-0-0-0-000-0-0-000-000-0---0---0-5-0---5-3--|
   . . ... ... . . . . . . . . ... . . ... ... .   .   .   .
D|------------------------------------------------------------------|
A|------------------------------------------------------------------|
F|------------------------------------------------------------------|
C|---------------------------------------------------------------3--|
G|-0-0-000-000-0-0-0-0-0-0-0-0-000-0-000-0-000---1---0-------0------|
C|-0-0-000-000-0-0-0-0-0-0-0-0-000-0-000-0-000-0---0---0-5-0---5----|
   . . ... ... . . . . . . . . ... . ... . ... .   .   .   .

Guitar 1
D|------------------------------------------------------------------|
A|------------------------------------------------------------------|
F|------------------------------------------------------------------|
C|------------------------------------------------------------------|
G|-0-0-000-000---8---7-0-0-0-0---10---8-000-000---1---0-------0-----|
C|-0-0-000-000-0---0---0-0-0-0-0----0---000-000-0---0---0-5-0---5-3-|
   . . ... ... .   .   . . . . .    .   ... ... .   .   .   .
Guitar 2
D|------------------------------------------------------------------|
A|------------------------------------------------------------------|
F|------------------------------------------------------------------|
C|------------------------------------------------------------------|
G|-0-0-000-000-0-0-0-0-0-0-0-0-000--0-0-000-000---1---0-------0-----|
C|-0-0-000-000-0-0-0-0-0-0-0-0-000--0-0-000-000-0---0---0-5-0---5-3-|
   . . ... ... . . . . . . . . ...  . . ... ... .   .   .   .

Guitar 1
D|------------------------------------------------------------------|
A|------------------------------------------------------------------|
F|------------------------------------------------------------------|
C|-----------------------------------7---------------------------3--|
G|-0-0-000-000---8---7-0-0-0-0-5h8p5---0-0-000---1---0-------0------|
C|-0-0-000-000-0---0---0-0-0-0---------0-0-000-0---0---0-5-0---5----|
   . . ... ... .   .   . . . .         . . ...   .   .
Guitar 2
D|------------------------------------------------------------------|
A|------------------------------------------------------------------|
F|------------------------------------------------------------------|
C|---------------------------------------------------------------3--|
G|-0-0-000-000-0-0-0-0-0-0-0-0-000-0-000-0-000---1---0-------0------|
C|-0-0-000-000-0-0-0-0-0-0-0-0-000-0-000-0-000-0---0---0-5-0---5----|
   . . ... ... . . . . . . . . ... . ... . ... .   .   .   .
Guitar 3
D|------------------------------------------------------------------|
A|------------------------------------------------------------------|
F|------------------------------------------------------------------|
C|-----------------------------7h8p5-8------------------------------|
G|------------------------------------------------------------------|
C|-same as guitar 1 but with----------------------------------------|

Guitar 1 + 2
D|------------------|
A|------------------|
F|------------------|
C|-0----------------|
G|-0----------------|
C|-0----------------|

END

Pretty Sure this 100%
Enjoy!
Tap to rate this tab
# A B C D E F G H I J K L M N O P Q R S T U V W X Y Z