Song name
# A B C D E F G H I J K L M N O P Q R S T U V W X Y Z

As I Lay Dying - Moving Forward tab

----------------------------------------------------------------------------
			     Moving Forward
                              As I Lay Dying
----------------------------------------------------------------------------
The 10 year anniversary of As I Lay Dying and they do not disappoint. The cover songs
are well done, and their new songs are just as incredible as the others. This song has an
intense solo, and is not recommended for beginners. I have a hard time playing it 
myself. Hopefully this tab helps, and if you want a visual version of this guitar tab, check out
my cover. Enjoy!

Username: dkm817 (same on X box live)
Youtube Cover: http://www.youtube.com/watch?v=4lC-4xyxwB8
Email: guitardrums@rockfan.com

Guitar 1 Rhythmic (C G C F A D)
Guitar 2 Lead     (C G C F A D)
Guitar 3 Lead     (C G C F A D)


Tab Guide...

==================================================================
(end of measures)

==================================================================
==================================================================
(end of parts)

==================================================================
==================================================================
==================================================================
(end of song)

(If there is a “continued” it is because the numbers could not
fit on 1 line.)


Intro 1

Guitar 1
D-----------------------------------------------------------------|
A-----------------------------------------------------------------|
F-----------------------------------------------------------------|
C-7*~~~~~~~~~~~~~~~~~~~~~~~~~~~~~~~~~~~~~~~~~~~~~~~~~~~~~~~~~~~~~-|
G-----------------------------------------------------------------|
C-----------------------------------------------------------------|

==================================================================

Guitar 2
D-----------------------------------------------------------------|
A-11*~~~~~~~~~~~~~~~~~~~~~~~~~~~~~~~~~~~~~~~~~~~~~~~~~~~~~~~~~~~~-|
F-----------------------------------------------------------------|
C-----------------------------------------------------------------|
G-----------------------------------------------------------------|
C-----------------------------------------------------------------|

Guitar 3
D-----------------------------------------------------------------|
A-----------------------------------------------------------------|
F-----------------------------------------------------------------|
C-----------------------------------------------------------------|
G-----------------------------------------------------------------|
C-7*~~~~~~~~~~~~~~~~~~~~~~~~~~~~~~~~~~~~~~~~~~~~~~~~~~~~~~~~~~~~~-|

==================================================================

Guitar 1 (Fade In)
D-----------------------------------------------------------------|
A-----------------------------------------------------------------|
F-----------------------------------------------------------------|
C-0~~~~~~~~~~~~~~~~~~~~~~~~~~~~~~~~~~~~~~~~~~~~~~~~~~~~~~~~~~~~~~-|
G-0~~~~~~~~~~~~~~~~~~~~~~~~~~~~~~~~~~~~~~~~~~~~~~~~~~~~~~~~~~~~~~-|
C-0~~~~~~~~~~~~~~~~~~~~~~~~~~~~~~~~~~~~~~~~~~~~~~~~~~~~~~~~~~~~~~-|

Guitar 2 (Fade In)
D-----------------------------------------------------------------|
A-6---5-------------------------------6---5-----------------------|
F-----------------5---7---------------------------5---7-----------|
C---------0---0-----------0---7---0-----------0-----------0---7---|
G-----------------------------------------------------------------|
C-----------------------------------------------------------------|
pm        .   .           .   .   .           .           .   .

Guitar 3 (Fade In)
D-----------------------------------------------------------------|
A-----------------5---6---------------------------5---6-----------|
F-7---5-------------------------------7---5-----------------------|
C---------0---0-----------0---7---0-----------0-----------0---7---|
G-----------------------------------------------------------------|
C-----------------------------------------------------------------|
pm        .   .           .   .   .           .           .   .

==================================================================

Guitar 1
D-----------------------------------------------------------------|
A-----------------------------------------------------------------|
F-----------------------------------------------------------------|
C-~~~~~~~~~~~~~~~~~~~~~~~~~~~~~~~~~~~~~~~~~~~~~~~~~~~~~~~~~~~~~~~-|
G-~~~~~~~~~~~~~~~~~~~~~~~~~~~~~~~~~~~~~~~~~~~~~~~~~~~~~~~~~~~~~~~-|
C-~~~~~~~~~~~~~~~~~~~~~~~~~~~~~~~~~~~~~~~~~~~~~~~~~~~~~~~~~~~~~~~-|

Guitar 2
D-----------------------------------------------------------------|
A-6---5-------------------------------6---5-----------------------|
F-----------------5---7---------------------------5---7-----------|
C---------0---0-----------0---7---0-----------0-----------0---7---|
G-----------------------------------------------------------------|
C-----------------------------------------------------------------|
pm        .   .           .   .   .           .           .   .

Guitar 3
D-----------------------------------------------------------------|
A-----------------5---6---------------------------5---6-----------|
F-7---5-------------------------------7---5-----------------------|
C---------0---0-----------0---7---0-----------0-----------0---7---|
G-----------------------------------------------------------------|
C-----------------------------------------------------------------|
pm        .   .           .   .   .           .           .   .

==================================================================
==================================================================


Intro 2

(x3)

Guitar 1
D-----------------------------------------------------------------|
A-----------------------------------------------------------------|
F-----------------------------------------------------------------|
C-0---0---0---0---0---0-----------0---0---0-------0---0-----------|
G-0---0---0---0---0---0-----------0---0---0---5---0---0---3---5---|
C-0---0---0---0---0---0-----------0---0---0-------0---0-----------|
pm.   .   .   .   .   .           .   .   .       .   .

Guitar 2
D-----------------------------------------------------------------|
A-6---5-------------------------------6---5-----------------------|
F-----------------5---7---------------------------5---7-----------|
C---------0---0-----------0---7---0-----------0-----------0---7---|
G-----------------------------------------------------------------|
C-----------------------------------------------------------------|
pm        .   .           .   .   .           .           .   .

Guitar 3
D-----------------------------------------------------------------|
A-----------------5---6---------------------------5---6-----------|
F-7---5-------------------------------7---5-----------------------|
C---------0---0-----------0---7---0-----------0-----------0---7---|
G-----------------------------------------------------------------|
C-----------------------------------------------------------------|
pm        .   .           .   .   .           .           .   .

==================================================================

Guitar 1
D-----------------------------------------------------------------|
A-----------------------------------------------------------------|
F-----------------------------------------------------------------|
C-8---8---8---8---8---8---8---8---5---5---5---5---5---5---5---5---|
G-8---8---8---8---8---8---8---8---5---5---5---5---5---5---5---5---|
C-8---8---8---8---8---8---8---8---5---5---5---5---5---5---5---5---|

Guitar 2
D-----------------------------------------------------------------|
A-6---5-------------------------------6---5-----------------------|
F-----------------5---7---------------------------5---7-----------|
C---------0---0-----------0---7---0-----------0-----------0---7---|
G-----------------------------------------------------------------|
C-----------------------------------------------------------------|
pm        .   .           .   .   .           .           .   .

Guitar 3
D-----------------------------------------------------------------|
A-----------------5---6---------------------------5---6-----------|
F-7---5-------------------------------7---5-----------------------|
C---------0---0-----------0---7---0-----------0-----------0---7---|
G-----------------------------------------------------------------|
C-----------------------------------------------------------------|
pm        .   .           .   .   .           .           .   .

==================================================================
==================================================================


Verse 1

Guitar 3
D-----------------------------------------------------------------|
A-11*~~~~~~~~~~~~~~~~~~~~~~~~~~~~~~~~~~~~~~~~~~~~~~~~~~~~~~~~~~~~-|
F-----------------------------------------------------------------|
C-----------------------------------------------------------------|
G-----------------------------------------------------------------|
C-----------------------------------------------------------------|

==================================================================

Guitar 1 & 2
D-----------------------------------------------------------------|
A-----------------------------------------------------------------|
F-----------------------------------------------------------------|
C-------------------------------------------------x---x---x---x---|
G-------------------------------------------------x---x---x---x---|
C-------------------------------------------------x---x---x---x---|

==================================================================
==================================================================


Verse 2

Guitar 1 & 2
D-----------------------------------------------------------------|
A-----------------------------------------------------------------|
F-----------------------------------------------------------------|
C-----------------------------------------------------------------|
G-5p--0-----------------------------------------8---7---5---0h3h5-|
C---------0---8---0---5---0---7h-8p-7p--0---0---------------------|
pm        .       .       .                 .

==================================================================

Guitar 1 & 2
D-----------------------------------------------------------------|
A-----------------------------------------------------------------|
F-----------------------------------------------------------------|
C----------------------------/8~~~~~~-7-7-5-5-3-3-5-5-7-7-0-0-0-0-|
G-5p--0-----------------------------------------------------------|
C---------0---8---0---7---0---------------------------------------|
pm        .       .       .           . . . . . . . . . . . . . .

==================================================================

Guitar 1 & 2
D-----------------------------------------------------------------|
A-----------------------------------------------------------------|
F-----------------------------------------------------------------|
C-----------------------------------------------------------------|
G-5p--0-----------------------------------------8---7---5---0h3h5-|
C---------0---8---0---5---0---7h-8p-7p--0---0---------------------|
pm        .       .       .                 .

==================================================================

Guitar 1 & 2
D-----------------------------------------------------------------|
A-----------------------------------------------------------------|
F-----------------------------------------------------------------|
C-----------------------------------------------------------------|
G-5p--0-------------------------------0h5p0-------0-0-5---0-0-5---|
C---------0---8---0---7---0---3~~~~~~---------3-------------------|
pm        .       .                               . .     . .

==================================================================
==================================================================


Pre Chorus

Guitar 1
D-----------------------------------------------------------------|
A-----------------------------------------------------------------|
F-----------------------------------------------------------------|
C-0~~~~~~~~~~~~~~~~~~~~~~~~~~~~~~~~~~~~~~~~~~~~~~~~~~~~~~~~~~~~~~-|
G-0~~~~~~~~~~~~~~~~~~~~~~~~~~~~~~~~~~~~~~~~~~~~~~~~~~~~~~~~~~~~~~-|
C-0~~~~~~~~~~~~~~~~~~~~~~~~~~~~~~~~~~~~~~~~~~~~~~~~~~~~~~~~~~~~~~-|

Guitar 3 (Clean)
D-------------0~~~~~~~~~~~~~~~~~~~~~~~~~~~~~~~~~~~~~~~~~~~~~~~~~~-|
A---------3~~~~~~~~~~-3~~~~~~~~~~~~~~~~~~~~~~~~~~~~~~~~~~~~~~~~~~-|
F-----2~~~~~~~~~~~~~~~~~~~~~~~~~~~~~~~~~~~~~~~~~~~~~~~~~~~~~~~~~~-|
C-0~~~~~~~~~~~~~~~~~~~~~~~~~~~~~~~~~~~~~~~~~~~~~~~~~~~~~~~~~~~~~~-|
G-----------------------------------------------------------------|
C-----------------------------------------------------------------|

==================================================================
==================================================================


Chorus 1

Guitar 1 & 3
D-----------------------------------------------------------------|
A-----------------------------------------------------------------|
F-----------------------------------------------------------------|
C-0---0---0---0---0---0---0---0---0---0---0---0---0---0---0---0---|
G-0---0---0---0---0---0---0---0---0---0---0---0---0---0---0---0---|
C-0---0---0---0---0---0---0---0---0---0---0---0---0---0---0---0---|

Guitar 2
D-----------------------------------------------------------------|
A-------------------------10~~~~~~~~~~~~~~~~~~~~~~~~~~~~~---------|
F-9~~~~~~~~~~-10~~~~~~~~~---------------------------------10~~~~~-|
C-----------------------------------------------------------------|
G-----------------------------------------------------------------|
C-----------------------------------------------------------------|

==================================================================

Guitar 1 & 3
D-----------------------------------------------------------------|
A-----------------------------------------------------------------|
F-----------------------------------------------------------------|
C-8---8---8---8---8---8---10~~~~~-10--10--10--10--10--10--10--10--|
G-8---8---8---8---8---8---10~~~~~-10--10--10--10--10--10--10--10--|
C-8---8---8---8---8---8---10~~~~~-10--10--10--10--10--10--10--10--|

Guitar 2
D-----------------------------------------------------------------|
A-11~~~~~-10~~~~~-------------------------------------------------|
F-----------------10~~~~~-9~~~~~~~~~~-10~~~~~~~~~~~~~~~~~-10~~~~~-|
C-----------------------------------------------------------------|
G-----------------------------------------------------------------|
C-----------------------------------------------------------------|

==================================================================

Guitar 1 & 3
D-----------------------------------------------------------------|
A-----------------------------------------------------------------|
F-----------------------------------------------------------------|
C-0---0---0---0---0---0---0---0---0---0---0---0---0---0---0---0---|
G-0---0---0---0---0---0---0---0---0---0---0---0---0---0---0---0---|
C-0---0---0---0---0---0---0---0---0---0---0---0---0---0---0---0---|

Guitar 2
D-----------------------------------------------------------------|
A-13~~~~~~~~~-11~~~~~~~~~-10~~~~~~~~~~~~~~~~~~~~~~~~~~~~~~~~~~~~~-|
F-----------------------------------------------------------------|
C-----------------------------------------------------------------|
G-----------------------------------------------------------------|
C-----------------------------------------------------------------|

==================================================================

Guitar 1 & 3
D-----------------------------------------------------------------|
A-----------------------------------------------------------------|
F-----------------------------------------------------------------|
C-8---8---8---8---8---8---10~~~~~-10--10--10--10--7---7---7---7---|
G-8---8---8---8---8---8---10~~~~~-10--10--10--10--7---7---7---7---|
C-8---8---8---8---8---8---10~~~~~-10--10--10--10--7---7---7---7---|

Guitar 2
D-----------------------------------------------------------------|
A-11~~~~~~~~~-10~~~~~~~~~-------------8~~~~~~~~~~~~~~~~~~~~~~~~~~-|
F-------------------------10~~~~~~~~~-----------------------------|
C-----------------------------------------------------------------|
G-----------------------------------------------------------------|
C-----------------------------------------------------------------|

==================================================================
==================================================================


Bridge 1

Guitar 1
D-----------------------------------------------------------------|
A-----------------------------------------------------------------|
F-----------------------------------------------------------------|
C-0---0---0---0---0---0-----------0---0---0-------0---0-----------|
G-0---0---0---0---0---0-----------0---0---0---5---0---0---3---5---|
C-0---0---0---0---0---0-----------0---0---0-------0---0-----------|
pm.   .   .   .   .   .           .   .   .       .   .

Guitar 2
D-----------------------------------------------------------------|
A-10~~~~~~~~~~~~~~~~~~~~~~~~~~~~~~~~~~~~~~~~~~~~~~~~~~~~~~~~~~~~~-|
F-----------------------------------------------------------------|
C-----------------------------------------------------------------|
G-----------------------------------------------------------------|
C-----------------------------------------------------------------|

Guitar 3
D-----------------------------------------------------------------|
A-----------------5---6---------------------------5---6-----------|
F-7---5-------------------------------7---5-----------------------|
C---------0---0-----------0---7---0-----------0-----------0---7---|
G-----------------------------------------------------------------|
C-----------------------------------------------------------------|
pm        .   .           .   .   .           .           .   .

==================================================================

(x2)

Guitar 1
D-----------------------------------------------------------------|
A-----------------------------------------------------------------|
F-----------------------------------------------------------------|
C-0---0---0---0---0---0-----------0---0---0-------0---0-----------|
G-0---0---0---0---0---0-----------0---0---0---5---0---0---3---5---|
C-0---0---0---0---0---0-----------0---0---0-------0---0-----------|
pm.   .   .   .   .   .           .   .   .       .   .

Guitar 2
D-----------------------------------------------------------------|
A-6---5-------------------------------6---5-----------------------|
F-----------------5---7---------------------------5---7-----------|
C---------0---0-----------0---7---0-----------0-----------0---7---|
G-----------------------------------------------------------------|
C-----------------------------------------------------------------|
pm        .   .           .   .   .           .           .   .

Guitar 3
D-----------------------------------------------------------------|
A-----------------5---6---------------------------5---6-----------|
F-7---5-------------------------------7---5-----------------------|
C---------0---0-----------0---7---0-----------0-----------0---7---|
G-----------------------------------------------------------------|
C-----------------------------------------------------------------|
pm        .   .           .   .   .           .           .   .

==================================================================

Guitar 1
D-----------------------------------------------------------------|
A-----------------------------------------------------------------|
F-----------------------------------------------------------------|
C-8---8---8---8---8---8---8---8---5---5---5---5---5---5---5---5---|
G-8---8---8---8---8---8---8---8---5---5---5---5---5---5---5---5---|
C-8---8---8---8---8---8---8---8---5---5---5---5---5---5---5---5---|

Guitar 2
D-----------------------------------------------------------------|
A-6---5-------------------------------6---5-----------------------|
F-----------------5---7---------------------------5---7-----------|
C---------0---0-----------0---7---0-----------0-----------0---7---|
G-----------------------------------------------------------------|
C-----------------------------------------------------------------|
pm        .   .           .   .   .           .           .   .

Guitar 3
D-----------------------------------------------------------------|
A-----------------5---6---------------------------5---6-----------|
F-7---5-------------------------------7---5-----------------------|
C---------0---0-----------0---7---0-----------0-----------0---7---|
G-----------------------------------------------------------------|
C-----------------------------------------------------------------|
pm        .   .           .   .   .           .           .   .

==================================================================
==================================================================


Verse 3

Guitar 1
D-----------------------------------------------------------------|
A-----------------------------------------------------------------|
F-----------------------------------------------------------------|
C-0---0---0---0---0---0---0---0---0---0---0---0---0---0---0---0---|
G-----------------------------------------------------------------|
C-----------------------------------------------------------------|
pm.   .   .   .   .   .   .   .   .   .   .   .   .   .   .   .

Guitar 2
D-----------------------------------------------------------------|
A-----------------------------------------------------------------|
F-7---7---7---7---7---7---7---7---7---7---7---7---7---7---7---7---|
C-----------------------------------------------------------------|
G-----------------------------------------------------------------|
C-----------------------------------------------------------------|
pm.   .   .   .   .   .   .   .   .   .   .   .   .   .   .   .

Guitar 3
D-----------------------------------------------------------------|
A-----------------------------------------------------------------|
F-----------------------------------------------------------------|
C-7*~~~~~~~~~~~~~~~~~~~~~~~~~~~~~~~~~~~~~~~~~~~~~~~~~~~~~~~~~~~~~-|
G-----------------------------------------------------------------|
C-----------------------------------------------------------------|

==================================================================

Guitar 1
D-----------------------------------------------------------------|
A-----------------------------------------------------------------|
F-----------------------------------------------------------------|
C-0---0---0---0---0---0---0---0---0---0---0---0---0---0---0---0---|
G-----------------------------------------------------------------|
C-----------------------------------------------------------------|
pm.   .   .   .   .   .   .   .   .   .   .   .   .   .   .   .

Guitar 2
D-----------------------------------------------------------------|
A-----------------------------------------------------------------|
F-5---5---5---5---5---5---5---5---5---5---5---5---5---5---5---5---|
C-----------------------------------------------------------------|
G-----------------------------------------------------------------|
C-----------------------------------------------------------------|
pm.   .   .   .   .   .   .   .   .   .   .   .   .   .   .   .

==================================================================

Guitar 1
D-----------------------------------------------------------------|
A-----------------------------------------------------------------|
F-----------------------------------------------------------------|
C-0---0---0---0---0---0---0---0---0---0---0---0---0---0---0---0---|
G-----------------------------------------------------------------|
C-----------------------------------------------------------------|
pm.   .   .   .   .   .   .   .   .   .   .   .   .   .   .   .

Guitar 2
D-----------------------------------------------------------------|
A-----------------------------------------------------------------|
F-3---3---3---3---3---3---3---3---3---3---3---3---3---3---3---3---|
C-----------------------------------------------------------------|
G-----------------------------------------------------------------|
C-----------------------------------------------------------------|
pm.   .   .   .   .   .   .   .   .   .   .   .   .   .   .   .

==================================================================

Guitar 1
D-----------------------------------------------------------------|
A-----------------------------------------------------------------|
F-----------------------------------------------------------------|
C-0---0---0---0---0---0---0---0---ps\~~~~~~~~~~~~~~~~~~~~~~~~~~~~-|
G---------------------------------ps\~~~~~~~~~~~~~~~~~~~~~~~~~~~~-|
C---------------------------------ps\~~~~~~~~~~~~~~~~~~~~~~~~~~~~-|
pm.   .   .   .

Guitar 2
D-----------------------------------------------------------------|
A-----------------------------------------------------------------|
F-7---7---7---7---7---7---7---7-----------------------------------|
C---------------------------------ps\~~~~~~~~~~~~~~~~~~~~~~~~~~~~-|
G---------------------------------ps\~~~~~~~~~~~~~~~~~~~~~~~~~~~~-|
C---------------------------------ps\~~~~~~~~~~~~~~~~~~~~~~~~~~~~-|
pm.   .   .   .

==================================================================
==================================================================


Verse 4

Guitar 1 & 2
D-----------------------------------------------------------------|
A-----------------------------------------------------------------|
F-----------------------------------------------------------------|
C-----------------------------------------------------------------|
G-5p--0-----------------------------------------8---7---5---0h3h5-|
C---------0---8---0---5---0---7h-8p-7p--0---0---------------------|
pm        .       .       .                 .

Guitar 3
D-----------------------------------------------------------------|
A-----------------------------------------------------------------|
F-7---7---7---7---7---7---7---7---7---7---7---7---7---7---7---7---|
C-x---x---x---x---x---x---x---x---x---x---x---x---x---x---x---x---|
G-5---5---5---5---5---5---5---5---5---5---5---5---5---5---5---5---|
C-----------------------------------------------------------------|

==================================================================

Guitar 1 & 2
D-----------------------------------------------------------------|
A-----------------------------------------------------------------|
F-----------------------------------------------------------------|
C----------------------------/8~~~~~~-7-7-5-5-3-3-5-5-7-7-0-0-0-0-|
G-5p--0-----------------------------------------------------------|
C---------0---8---0---7---0---------------------------------------|
pm        .       .       .           . . . . . . . . . . . . . .

Guitar 3
D-----------------------------------------------------------------|
A-----------------------------------------------------------------|
F-7---7---7---7---7---7---7---7---7---7---7---7---7---7---7---7---|
C-x---x---x---x---x---x---x---x---x---x---x---x---x---x---x---x---|
G-5---5---5---5---5---5---5---5---5---5---5---5---5---5---5---5---|
C-----------------------------------------------------------------|

==================================================================

Guitar 1 & 2
D-----------------------------------------------------------------|
A-----------------------------------------------------------------|
F-----------------------------------------------------------------|
C-----------------------------------------------------------------|
G-5p--0-----------------------------------------8---7---5---0h3h5-|
C---------0---8---0---5---0---7h-8p-7p--0---0---------------------|
pm        .       .       .                 .

Guitar 3
D-----------------------------------------------------------------|
A-----------------------------------------------------------------|
F-10--10--10--10--10--10--10--10--10--10--10--10--10--10--10--10--|
C-x---x---x---x---x---x---x---x---x---x---x---x---x---x---x---x---|
G-8---8---8---8---8---8---8---8---8---8---8---8---8---8---8---8---|
C-----------------------------------------------------------------|

==================================================================

Guitar 1 & 2
D-----------------------------------------------------------------|
A-----------------------------------------------------------------|
F-----------------------------------------------------------------|
C-----------------------------------------------------------------|
G-5p--0-------------------------------0h5p0-------0-0-5---0-0-5---|
C---------0---8---0---7---0---3~~~~~~---------3-------------------|
pm        .       .                               . .     . .

Guitar 3
D-----------------------------------------------------------------|
A-----------------------------------------------------------------|
F-7---7---7---7---7---7---7---7---7---7---7---7---7---7---7---7---|
C-x---x---x---x---x---x---x---x---x---x---x---x---x---x---x---x---|
G-5---5---5---5---5---5---5---5---5---5---5---5---5---5---5---5---|
C-----------------------------------------------------------------|

==================================================================
==================================================================


Chorus 1

Guitar 1 & 3
D-----------------------------------------------------------------|
A-----------------------------------------------------------------|
F-----------------------------------------------------------------|
C-0---0---0---0---0---0---0---0---0---0---0---0---0---0---0---0---|
G-0---0---0---0---0---0---0---0---0---0---0---0---0---0---0---0---|
C-0---0---0---0---0---0---0---0---0---0---0---0---0---0---0---0---|

Guitar 2
D-----------------------------------------------------------------|
A-------------------------10~~~~~~~~~~~~~~~~~~~~~~~~~~~~~---------|
F-9~~~~~~~~~~-10~~~~~~~~~---------------------------------10~~~~~-|
C-----------------------------------------------------------------|
G-----------------------------------------------------------------|
C-----------------------------------------------------------------|

==================================================================

Guitar 1 & 3
D-----------------------------------------------------------------|
A-----------------------------------------------------------------|
F-----------------------------------------------------------------|
C-8---8---8---8---8---8---10~~~~~-10--10--10--10--10--10--10--10--|
G-8---8---8---8---8---8---10~~~~~-10--10--10--10--10--10--10--10--|
C-8---8---8---8---8---8---10~~~~~-10--10--10--10--10--10--10--10--|

Guitar 2
D-----------------------------------------------------------------|
A-11~~~~~-10~~~~~-------------------------------------------------|
F-----------------10~~~~~-9~~~~~~~~~~-10~~~~~~~~~~~~~~~~~-10~~~~~-|
C-----------------------------------------------------------------|
G-----------------------------------------------------------------|
C-----------------------------------------------------------------|

==================================================================

Guitar 1 & 3
D-----------------------------------------------------------------|
A-----------------------------------------------------------------|
F-----------------------------------------------------------------|
C-0---0---0---0---0---0---0---0---0---0---0---0---0---0---0---0---|
G-0---0---0---0---0---0---0---0---0---0---0---0---0---0---0---0---|
C-0---0---0---0---0---0---0---0---0---0---0---0---0---0---0---0---|

Guitar 2
D-----------------------------------------------------------------|
A-13~~~~~~~~~-11~~~~~~~~~-10~~~~~~~~~~~~~~~~~~~~~~~~~~~~~~~~~~~~~-|
F-----------------------------------------------------------------|
C-----------------------------------------------------------------|
G-----------------------------------------------------------------|
C-----------------------------------------------------------------|

==================================================================

Guitar 1 & 3
D-----------------------------------------------------------------|
A-----------------------------------------------------------------|
F-----------------------------------------------------------------|
C-8---8---8---8---8---8---10~~~~~-10--10--10--10--7---7---7---7---|
G-8---8---8---8---8---8---10~~~~~-10--10--10--10--7---7---7---7---|
C-8---8---8---8---8---8---10~~~~~-10--10--10--10--7---7---7---7---|

Guitar 2
D-----------------------------------------------------------------|
A-11~~~~~~~~~-10~~~~~~~~~-------------8~~~~~~~~~~~~~~~~~~~~~~~~~~-|
F-------------------------10~~~~~~~~~-----------------------------|
C-----------------------------------------------------------------|
G-----------------------------------------------------------------|
C-----------------------------------------------------------------|

==================================================================
==================================================================


Chorus 2

Guitar 1 & 3
D-----------------------------------------------------------------|
A-----------------------------------------------------------------|
F-----------------------------------------------------------------|
C-0---0---0---0---0---0---0---0---0---0---0---0---0---0---0---0---|
G-0---0---0---0---0---0---0---0---0---0---0---0---0---0---0---0---|
C-0---0---0---0---0---0---0---0---0---0---0---0---0---0---0---0---|

Guitar 2
D-----------------------------------------------------------------|
A---------15----------15----------13----------15------15----------|
F-----14----------14----------14----------14--------------14--12--|
C-12----------12----------12----------12----------12--------------|
G-----------------------------------------------------------------|
C-----------------------------------------------------------------|
pm.   .       .   .       .   .       .   .       .

==================================================================

Guitar 1 & 3
D-----------------------------------------------------------------|
A-----------------------------------------------------------------|
F-----------------------------------------------------------------|
C-8---8---8---8---8---8---10~~~~~-10--10--10--10--10--10--10--10--|
G-8---8---8---8---8---8---10~~~~~-10--10--10--10--10--10--10--10--|
C-8---8---8---8---8---8---10~~~~~-10--10--10--10--10--10--10--10--|

Guitar 2
D-----------------------------------------------------------------|
A---------15----------15------15--13------13--15------15----------|
F-12--14----------14--------------------------------------14--12--|
C-------------12----------12----------12----------12--------------|
G-----------------------------------------------------------------|
C-----------------------------------------------------------------|
pm            .   .       .           .           .

==================================================================

Guitar 1 & 3
D-----------------------------------------------------------------|
A-----------------------------------------------------------------|
F-----------------------------------------------------------------|
C-0---0---0---0---0---0---0---0---0---0---0---0---0---0---0---0---|
G-0---0---0---0---0---0---0---0---0---0---0---0---0---0---0---0---|
C-0---0---0---0---0---0---0---0---0---0---0---0---0---0---0---0---|

Guitar 2
D-----------------------------------------------------------------|
A---------15----------15----------13----------15------15----------|
F-----14----------14----------14----------14--------------14--12--|
C-12----------12----------12----------12----------12--------------|
G-----------------------------------------------------------------|
C-----------------------------------------------------------------|
pm.   .       .   .       .   .       .   .       .

==================================================================

Guitar 1 & 3
D-----------------------------------------------------------------|
A-----------------------------------------------------------------|
F-----------------------------------------------------------------|
C-8---8---8---8---8---8---10~~~~~-10--10--10--10--7---7---7---7---|
G-8---8---8---8---8---8---10~~~~~-10--10--10--10--7---7---7---7---|
C-8---8---8---8---8---8---10~~~~~-10--10--10--10--7---7---7---7---|

Guitar 2
D-----------------------------------------------------------------|
A---------15----------15------15--13------13--15------15----------|
F-12--14----------14--------------------------------------14--12--|
C-------------12----------12----------12----------12--------------|
G-----------------------------------------------------------------|
C-----------------------------------------------------------------|
pm            .   .       .           .           .

==================================================================

Guitar 1 & 3
D-----------------------------------------------------------------|
A-----------------------------------------------------------------|
F-----------------------------------------------------------------|
C-8---8---8---8---8---8---8---8---8---10--10--10--7---7---7---7---|
G-8---8---8---8---8---8---8---8---8---10--10--10--7---7---7---7---|
C-8---8---8---8---8---8---8---8---8---10--10--10--7---7---7---7---|

Guitar 2
D-----------------------------------------------------------------|
A-----------------13----------------------------------------------|
F-14--15--14--12------12--14--12----------------------------------|
C---------------------------------15--14--15--14--14--15--14------|
G-------------------------------------------------------------15--|
C-----------------------------------------------------------------|

==================================================================
==================================================================


Breakdown

Guitar 1
D-----------------------------------------------------------------|
A-----------------------------------------------------------------|
F-----------------------------------------------------------------|
C-----------------------------------------------------------------|
G-5p--0-----------------------------------------8---7---5---0h3h5-|
C---------0---8---0---5---0---7h-8p-7p--0---0---------------------|
pm        .       .       .                 .

Guitar 2
D-----------------------------------------------------------------|
A-----------------------------------------------------------------|
F-----------------------------------------------------------------|
C-12~~~~~~~~~~~~~~~~~~~~~~~~~~~~~~~~~~~~~~~~~~~~~~~~~~~~~~~~~~~~~-|
G-----------------------------------------------------------------|
C-----------------------------------------------------------------|

Guitar 3
D-----------------------------------------------------------------|
A-----------------------------------------------------------------|
F-----------------------------------------------------------------|
C-0~~~~~~~~~~~~~~~~~~~~~~~~~~~~~~~~~~~~~~~~~~~~~~~~~~~~~~~~~~~~~~-|
G-0~~~~~~~~~~~~~~~~~~~~~~~~~~~~~~~~~~~~~~~~~~~~~~~~~~~~~~~~~~~~~~-|
C-0~~~~~~~~~~~~~~~~~~~~~~~~~~~~~~~~~~~~~~~~~~~~~~~~~~~~~~~~~~~~~~-|

==================================================================

Guitar 1
D-----------------------------------------------------------------|
A-----------------------------------------------------------------|
F-----------------------------------------------------------------|
C-----------------------------------------------------------------|
G-5p--0-----------------------------------------------------------|
C---------0---8---0---7---0---8~~~~~~-x-x-x-x-x-x-x-x-x-x-x-x-x-x-|
pm        .       .       .

==================================================================

Guitar 1
D-----------------------------------------------------------------|
A-----------------------------------------------------------------|
F-----------------------------------------------------------------|
C-----------------------------------------------------------------|
G-5p--0-----------------------------------------8---7---5---0h3h5-|
C---------0---8---0---5---0---7h-8p-7p--0---0---------------------|
pm        .       .       .                 .

Guitar 3
D-----------------------------------------------------------------|
A-----------------------------------------------------------------|
F-----------------------------------------------------------------|
C-0---0---0---0---0---0---0---0---0---0---0---0---0---0---0---0---|
G-0---0---0---0---0---0---0---0---0---0---0---0---0---0---0---0---|
C-0---0---0---0---0---0---0---0---0---0---0---0---0---0---0---0---|
pm.   .   .   .   .   .   .   .   .   .   .   .   .   .   .   .

==================================================================

Guitar 1
D-----------------------------------------------------------------|
A-----------------------------------------------------------------|
F-----------------------------------------------------------------|
C-----------------------------------------------------------------|
G-5p--0-------------------------------0h5p0-------0-0-5---0-0-5---|
C---------0---8---0---7---0---3~~~~~~---------3-------------------|
pm        .       .                               . .     . .

Guitar 2
D-----------------------------------------------------------------|
A-11*~~~~~~~~~~~~~~~~~~~~~~~~~~~~~~~~~~~~~~~~~~~~~~~~~~~~~~~~~~~~-|
F-----------------------------------------------------------------|
C-----------------------------------------------------------------|
G-----------------------------------------------------------------|
C-----------------------------------------------------------------|

Guitar 3
D-----------------------------------------------------------------|
A-----------------------------------------------------------------|
F-----------------------------------------------------------------|
C-0---0---0---0---0---0---0---0---0---0---0---0---0---------------|
G-0---0---0---0---0---0---0---0---0---0---0---0---0---------------|
C-0---0---0---0---0---0---0---0---0---0---0---0---0---------------|
pm.   .   .   .   .   .   .   .   .   .   .   .   .

==================================================================
==================================================================


Guitar Solo

Guitar 1
D-----------------------------------------------------------------|
A-----------------------------------------------------------------|
F-----------------------------------------------------------------|
C-5-7-------------------------------------------------------------|
G-------------8-5-----------------7-3---------8-5-------0h3h5-----|
C-----0-0-0-0-----0-0-0-0h5h7-0-0-----0-0-0-0-----0-0-0-------0-0-|
pm    . . . .     . . .       . .     . . . .     . . .       . .

Guitar 2
D-------------------------------------------------|
A-------------------15----------------------------|
F-17-14----------------14-------------17-19-17-14-|
C-------12-12-12-12-------12-12-12-15-------------|
G-------------------------------------------------|
C-------------------------------------------------|

Guitar 2 continued
D-------------------------------------------------|
A-15-18-15-13-15-13-10-13-10-13-10----------------|
F----------------------------------12-12-14-------|
C-------------------------------------------10~~~-|
G-------------------------------------------------|
C-------------------------------------------------|

==================================================================

Guitar 1
D-----------------------------------------------------------------|
A-----------------------------------------------------------------|
F-----------------------------------------------------------------|
C-5-7------------------------------------0h2h3-------2h3h5-3h5h7--|
G-------------8-5------------------0h1h3-------1h3h5--------------|
C-----0-0-0-0-----0-0-0-0h5h7-0-0---------------------------------|
pm    . . . .     . . .       . .

Guitar 2
D-------------------------------------------------|
A-------------------15----------------13-15-13-15-|
F-17-14----------------14-------------------------|
C-------12-12-12-12-------12-12-12-15-------------|
G-------------------------------------------------|
C-------------------------------------------------|

Guitar 2 continued
D-------------------------------------------------|
A-18-17-15----------------------------------------|
F----------17-14-12-14-17-14-12-------------------|
C-------------------------------15-17-14-15-14-15-|
G-------------------------------------------------|
C-------------------------------------------------|

==================================================================

Guitar 1
D-----------------------------------------------------------------|
A-----------------------------------------------------------------|
F-----------------------------------------------------------------|
C-5-7-------------------------------------------------------------|
G-------------8-5-----------------7-3---------8-5-------0h3h5-----|
C-----0-0-0-0-----0-0-0-0h5h7-0-0-----0-0-0-0-----0-0-0-------0-0-|
pm    . . . .     . . .       . .     . . . .     . . .       . .

Guitar 2
D-------------------------------------------------|
A-------------------15----------------------------|
F-17-14----------------14-------------17-19-17-14-|
C-------12-12-12-12-------12-12-12-15-------------|
G-------------------------------------------------|
C-------------------------------------------------|

Guitar 2 continued
D-------------------------------------------------|
A-15-18-15-13-15-13-10-13-10-13-10----------------|
F----------------------------------12-12-14-------|
C-------------------------------------------10~~~-|
G-------------------------------------------------|
C-------------------------------------------------|

==================================================================

Guitar 1
D-----------------------------------------------------------------|
A-----------------------------------------------------------------|
F-----------------------------------------------------------------|
C----------------------------------------0h2h3--------2h3h5-3h5h7-|
G-8-10---------8--------------------0h1h3-------1h3h5-------------|
C------8-8-8-8---12-8-8-8-0h5h7-8-8-------------------------------|
pm     . . . .      . . .       . .

Guitar 2
D-------------------------------------------|
A-------------------------------------------|
F-----------------------------9----------10-|
C-------------------0h8h10h12---10h12h14----|
G-12h13h15-12h13h15-------------------------|
C-------------------------------------------|

Guitar 2 continued
D----------------------------------------------|
A-------------------------------------------10-|
F---------------------------9h10h12-9h10h12----|
C----------12h14h15-8h10h12--------------------|
G-12h13h15-------------------------------------|
C----------------------------------------------|

==================================================================

Guitar 1
D-----------------------------------------------------------------|
A-----------------------------------------------------------------|
F-----------------------------------------------------------------|
C-7-----------3-----------2-----------3---------------------------|
G-0---0---0---0---0---0---0---0---0---0---0---0---8---0---7---8---|
C-0---0---0---0---0---0---0---0---0---0---0---0---7---0---5---7---|
pm    .   .       .   .       .   .       .   .       .

Guitar 2
D-----------------------------------------------------------------|
A-14b~~~~~~~~~~~~-14~~r~~-----------------------------------------|
F-------------------------14--12~~~~~-14~~~~~-------------12--14--|
C---------------------------------------------14~~~~~-15----------|
G-----------------------------------------------------------------|
C-----------------------------------------------------------------|


Guitar 3
D-----------------------------------------------------------------|
A-17b~~~~~~~~~~~~-17~~r~~-----------------------------------------|
F-------------------------19--17~~~~~-19~~~~~-------------17--19--|
C---------------------------------------------19~~~~~-19----------|
G-----------------------------------------------------------------|
C-----------------------------------------------------------------|

==================================================================

Guitar 1
D-----------------------------------------------------------------|
A-----------------------------------------------------------------|
F-----------------------------------------------------------------|
C-----------------------------------------------------------------|
G-------------8---------------7~~~~~~~~~~~~~~~~-8~~~~~~~~~~~~~~~~-|
C-8h--12--8-------8---12--8---5~~~~~~~~~~~~~~~~-7~~~~~~~~~~~~~~~~-|
pm        .       .       .

Guitar 2
D-----------------------------------------------------------------|
A-13~~b~~~r~~---------13~~~~~-----------------13------13----------|
F-------------14~~~~~---------12~~~~~~~~~~~~~-----14------14--12--|
C-----------------------------------------------------------------|
G-----------------------------------------------------------------|
C-----------------------------------------------------------------|

Guitar 3
D-----------------------------------------------------------------|
A-17~~b~~~r~~---------17~~~~~-----------------17------17----------|
F-------------19~~~~~---------17~~~~~~~~~~~~~-----19------19--17--|
C-----------------------------------------------------------------|
G-----------------------------------------------------------------|
C-----------------------------------------------------------------|

==================================================================

Guitar 1
D-----------------------------------------------------------------|
A-----------------------------------------------------------------|
F-----------------------------------------------------------------|
C-7-----------3-----------2-----------3---------------------------|
G-0---0---0---0---0---0---0---0---0---0---0---0---8---0---7---8---|
C-0---0---0---0---0---0---0---0---0---0---0---0---7---0---5---7---|
pm    .   .       .   .       .   .       .   .       .

Guitar 2
D-----------------------------------------------------------------|
A-14b~~~~~~~~~~~~-14~~r~~-----------------------------------------|
F-------------------------14--12~~~~~-14~~~~~-------------12--14--|
C---------------------------------------------14~~~~~-15----------|
G-----------------------------------------------------------------|
C-----------------------------------------------------------------|


Guitar 3
D-----------------------------------------------------------------|
A-17b~~~~~~~~~~~~-17~~r~~-----------------------------------------|
F-------------------------19--17~~~~~-19~~~~~-------------17--19--|
C---------------------------------------------19~~~~~-19----------|
G-----------------------------------------------------------------|
C-----------------------------------------------------------------|

==================================================================

Guitar 1
D-----------------------------------------------------------------|
A-----------------------------------------------------------------|
F-----------------------------------------------------------------|
C-8~~~~~~~~~~-7~~~~~~~~~~-10~~~~~~~~~~~~~~~~~~~~~~~~~~~~~~~~~~~~~-|
G-8~~~~~~~~~~-7~~~~~~~~~~-10~~~~~~~~~~~~~~~~~~~~~~~~~~~~~~~~~~~~~-|
C-8~~~~~~~~~~-7~~~~~~~~~~-10~~~~~~~~~~~~~~~~~~~~~~~~~~~~~~~~~~~~~-|

Guitar 2
D-------------------------------------------------|
A----------------------15----------17----------18-|
F-15-14-15-17-14h15h17----15h17h19----17h19h21----|
C-------------------------------------------------|
G-------------------------------------------------|
C-------------------------------------------------|

Guitar 2 continued
D-------------------15h17----------17h20p17----17-|
A-------18h20-17h18-------17h18h20----------20----|
F-17h19-------------------------------------------|
C-------------------------------------------------|
G-------------------------------------------------|
C-------------------------------------------------|

Guitar 3
D-------------------------------------17~~~~~~~~~-20~~~~~~~~~~~~~-|
A-18~~~~~~~~~-17~~~~~~~~~-20~~~~~~~~~-----------------------------|
F-----------------------------------------------------------------|
C-----------------------------------------------------------------|
G-----------------------------------------------------------------|
C-----------------------------------------------------------------|

==================================================================
==================================================================


Bridge 2

Guitar 1
D-----------------------------------------------------------------|
A-----------------------------------------------------------------|
F-----------------------------------------------------------------|
C-0~~~~~~~~~~~~~~~~~~~~~~~~~~~~~~~~~~~~~~~~~~~~~~~~~~~~~~~~~~~~~~-|
G-0~~~~~~~~~~~~~~~~~~~~~~~~~~~~~~~~~~~~~~~~~~~~~~~~~~~~~~~~~~~~~~-|
C-0~~~~~~~~~~~~~~~~~~~~~~~~~~~~~~~~~~~~~~~~~~~~~~~~~~~~~~~~~~~~~~-|

Guitar 2
D-22~~~~~~~~~~~~~~~~~~~~~~~~~~~~~~~~~~~~~~~~~~~~~~~~~~~~~~~~~\~~~-|
A-----------------------------------------------------------------|
F-----------------------------------------------------------------|
C-----------------------------------------------------------------|
G-----------------------------------------------------------------|
C-----------------------------------------------------------------|

Guitar 3
D-----------------------------------------------------------------|
A-------------------------10~~~~~~~~~~~~~~~~~~~~~~~~~~~~~---------|
F-9~~~~~~~~~~-10~~~~~~~~~---------------------------------10~~~~~-|
C-----------------------------------------------------------------|
G-----------------------------------------------------------------|
C-----------------------------------------------------------------|

==================================================================

Guitar 1
D-----------------------------------------------------------------|
A-----------------------------------------------------------------|
F-----------------------------------------------------------------|
C-8~~~~~~~~~~~~~~~~~~~~~~-10~~~~~~~~~~~~~~~~~~~~~~~~~~~~~~~~~~~~~-|
G-8~~~~~~~~~~~~~~~~~~~~~~-10~~~~~~~~~~~~~~~~~~~~~~~~~~~~~~~~~~~~~-|
C-8~~~~~~~~~~~~~~~~~~~~~~-10~~~~~~~~~~~~~~~~~~~~~~~~~~~~~~~~~~~~~-|

Guitar 3
D-----------------------------------------------------------------|
A-11~~~~~-10~~~~~-------------------------------------------------|
F-----------------10~~~~~-9~~~~~~~~~~-10~~~~~~~~~~~~~~~~~-10~~~~~-|
C-----------------------------------------------------------------|
G-----------------------------------------------------------------|
C-----------------------------------------------------------------|

==================================================================

Guitar 1
D-----------------------------------------------------------------|
A-----------------------------------------------------------------|
F-----------------------------------------------------------------|
C-0~~~~~~~~~~~~~~~~~~~~~~~~~~~~~~~~~~~~~~~~~~~~~~~~~~~~~~~~~~~~~~-|
G-0~~~~~~~~~~~~~~~~~~~~~~~~~~~~~~~~~~~~~~~~~~~~~~~~~~~~~~~~~~~~~~-|
C-0~~~~~~~~~~~~~~~~~~~~~~~~~~~~~~~~~~~~~~~~~~~~~~~~~~~~~~~~~~~~~~-|

Guitar 3
D-----------------------------------------------------------------|
A-13~~~~~~~~~-11~~~~~~~~~-10~~~~~~~~~~~~~~~~~~~~~~~~~~~~~~~~~~~~~-|
F-----------------------------------------------------------------|
C-----------------------------------------------------------------|
G-----------------------------------------------------------------|
C-----------------------------------------------------------------|

==================================================================

Guitar 1
D-----------------------------------------------------------------|
A-----------------------------------------------------------------|
F-----------------------------------------------------------------|
C-8~~~~~~-8---8---8---8---8---8---8---10--10--10--7---7---7---7---|
G-8~~~~~~-8---8---8---8---8---8---8---10--10--10--7---7---7---7---|
C-8~~~~~~-8---8---8---8---8---8---8---10--10--10--7---7---7---7---|
pm        .   .   .   .   .   .

Guitar 2
D-------------------10-10-------------------12-12-|
A-10-10-11-11-13-13-------11-11-13-13-15-15-------|
F-------------------------------------------------|
C-------------------------------------------------|
G-------------------------------------------------|
C-------------------------------------------------|

Guitar 2 continued
D-------------------13-13-------------------15-15-|
A-13-13-15-15-17-17-------15-15-17-17-18-18-------|
F-------------------------------------------------|
C-------------------------------------------------|
G-------------------------------------------------|
C-------------------------------------------------|

Guitar 3
D-------------------13-13-------------------15-15-|
A-13-13-15-15-17-17-------15-15-17-17-18-18-------|
F-------------------------------------------------|
C-------------------------------------------------|
G-------------------------------------------------|
C-------------------------------------------------|

Guitar 3 continued
D-------------------17-17-------------------18-18-|
A-17-17-18-18-20-20-------18-18-20-20-22-22-------|
F-------------------------------------------------|
C-------------------------------------------------|
G-------------------------------------------------|
C-------------------------------------------------|

==================================================================
==================================================================


Chorus 1

Guitar 1 & 3
D-----------------------------------------------------------------|
A-----------------------------------------------------------------|
F-----------------------------------------------------------------|
C-0---0---0---0---0---0---0---0---0---0---0---0---0---0---0---0---|
G-0---0---0---0---0---0---0---0---0---0---0---0---0---0---0---0---|
C-0---0---0---0---0---0---0---0---0---0---0---0---0---0---0---0---|

Guitar 2
D-----------------------------------------------------------------|
A-------------------------10~~~~~~~~~~~~~~~~~~~~~~~~~~~~~---------|
F-9~~~~~~~~~~-10~~~~~~~~~---------------------------------10~~~~~-|
C-----------------------------------------------------------------|
G-----------------------------------------------------------------|
C-----------------------------------------------------------------|

==================================================================

Guitar 1 & 3
D-----------------------------------------------------------------|
A-----------------------------------------------------------------|
F-----------------------------------------------------------------|
C-8---8---8---8---8---8---10~~~~~-10--10--10--10--10--10--10--10--|
G-8---8---8---8---8---8---10~~~~~-10--10--10--10--10--10--10--10--|
C-8---8---8---8---8---8---10~~~~~-10--10--10--10--10--10--10--10--|

Guitar 2
D-----------------------------------------------------------------|
A-11~~~~~-10~~~~~-------------------------------------------------|
F-----------------10~~~~~-9~~~~~~~~~~-10~~~~~~~~~~~~~~~~~-10~~~~~-|
C-----------------------------------------------------------------|
G-----------------------------------------------------------------|
C-----------------------------------------------------------------|

==================================================================

Guitar 1 & 3
D-----------------------------------------------------------------|
A-----------------------------------------------------------------|
F-----------------------------------------------------------------|
C-0---0---0---0---0---0---0---0---0---0---0---0---0---0---0---0---|
G-0---0---0---0---0---0---0---0---0---0---0---0---0---0---0---0---|
C-0---0---0---0---0---0---0---0---0---0---0---0---0---0---0---0---|

Guitar 2
D-----------------------------------------------------------------|
A-13~~~~~~~~~-11~~~~~~~~~-10~~~~~~~~~~~~~~~~~~~~~~~~~~~~~~~~~~~~~-|
F-----------------------------------------------------------------|
C-----------------------------------------------------------------|
G-----------------------------------------------------------------|
C-----------------------------------------------------------------|

==================================================================

Guitar 1 & 3
D-----------------------------------------------------------------|
A-----------------------------------------------------------------|
F-----------------------------------------------------------------|
C-8---8---8---8---8---8---10~~~~~-10--10--10--10--7---7---7---7---|
G-8---8---8---8---8---8---10~~~~~-10--10--10--10--7---7---7---7---|
C-8---8---8---8---8---8---10~~~~~-10--10--10--10--7---7---7---7---|

Guitar 2
D-----------------------------------------------------------------|
A-11~~~~~~~~~-10~~~~~~~~~-------------8~~~~~~~~~~~~~~~~~~~~~~~~~~-|
F-------------------------10~~~~~~~~~-----------------------------|
C-----------------------------------------------------------------|
G-----------------------------------------------------------------|
C-----------------------------------------------------------------|

==================================================================
==================================================================


Chorus 2

Guitar 1 & 3
D-----------------------------------------------------------------|
A-----------------------------------------------------------------|
F-----------------------------------------------------------------|
C-0---0---0---0---0---0---0---0---0---0---0---0---0---0---0---0---|
G-0---0---0---0---0---0---0---0---0---0---0---0---0---0---0---0---|
C-0---0---0---0---0---0---0---0---0---0---0---0---0---0---0---0---|

Guitar 2
D-----------------------------------------------------------------|
A---------15----------15----------13----------15------15----------|
F-----14----------14----------14----------14--------------14--12--|
C-12----------12----------12----------12----------12--------------|
G-----------------------------------------------------------------|
C-----------------------------------------------------------------|
pm.   .       .   .       .   .       .   .       .

==================================================================

Guitar 1 & 3
D-----------------------------------------------------------------|
A-----------------------------------------------------------------|
F-----------------------------------------------------------------|
C-8---8---8---8---8---8---10~~~~~-10--10--10--10--10--10--10--10--|
G-8---8---8---8---8---8---10~~~~~-10--10--10--10--10--10--10--10--|
C-8---8---8---8---8---8---10~~~~~-10--10--10--10--10--10--10--10--|

Guitar 2
D-----------------------------------------------------------------|
A---------15----------15------15--13------13--15------15----------|
F-12--14----------14--------------------------------------14--12--|
C-------------12----------12----------12----------12--------------|
G-----------------------------------------------------------------|
C-----------------------------------------------------------------|
pm            .   .       .           .           .

==================================================================

Guitar 1 & 3
D-----------------------------------------------------------------|
A-----------------------------------------------------------------|
F-----------------------------------------------------------------|
C-0---0---0---0---0---0---0---0---0---0---0---0---0---0---0---0---|
G-0---0---0---0---0---0---0---0---0---0---0---0---0---0---0---0---|
C-0---0---0---0---0---0---0---0---0---0---0---0---0---0---0---0---|

Guitar 2
D-----------------------------------------------------------------|
A---------15----------15----------13----------15------15----------|
F-----14----------14----------14----------14--------------14--12--|
C-12----------12----------12----------12----------12--------------|
G-----------------------------------------------------------------|
C-----------------------------------------------------------------|
pm.   .       .   .       .   .       .   .       .

==================================================================

Guitar 1 & 3
D-----------------------------------------------------------------|
A-----------------------------------------------------------------|
F-----------------------------------------------------------------|
C-8---8---8---8---8---8---10~~~~~-10--10--10--10--7---7---7---7---|
G-8---8---8---8---8---8---10~~~~~-10--10--10--10--7---7---7---7---|
C-8---8---8---8---8---8---10~~~~~-10--10--10--10--7---7---7---7---|

Guitar 2
D-----------------------------------------------------------------|
A---------15----------15------15--13------13--15------15----------|
F-12--14----------14--------------------------------------14--12--|
C-------------12----------12----------12----------12--------------|
G-----------------------------------------------------------------|
C-----------------------------------------------------------------|
pm            .   .       .           .           .

==================================================================

Guitar 1 & 3
D-----------------------------------------------------------------|
A-----------------------------------------------------------------|
F-----------------------------------------------------------------|
C-8---8---8---8---8---8---8---8---8---10--10--10--7---7---7---7---|
G-8---8---8---8---8---8---8---8---8---10--10--10--7---7---7---7---|
C-8---8---8---8---8---8---8---8---8---10--10--10--7---7---7---7---|

Guitar 2
D-----------------------------------------------------------------|
A-----------------13----------------------------------------------|
F-14--15--14--12------12--14--12----------------------------------|
C---------------------------------15--14--15--14--14--15--14------|
G-------------------------------------------------------------15--|
C-----------------------------------------------------------------|

==================================================================
==================================================================


Outro

Guitar 1 & 3
D-----------------------------------------------------------------|
A-----------------------------------------------------------------|
F-----------------------------------------------------------------|
C-8---8---8---8---8---8---8---8---8---10--10--10--7---7---7---7---|
G-8---8---8---8---8---8---8---8---8---10--10--10--7---7---7---7---|
C-8---8---8---8---8---8---8---8---8---10--10--10--7---7---7---7---|

Guitar 2
D-------------------------------------------------|
A-10-10-11-11-10-10-11-11-13-13-10-10-11-11-13-13-|
F-------------------------------------------------|
C-------------------------------------------------|
G-------------------------------------------------|
C-------------------------------------------------|

Guitar 3
D-11-11-------------------12-12-------------------|
A-------11-11-13-13-15-15-------13-13-15-15-17-15-|
F-------------------------------------------------|
C-------------------------------------------------|
G-------------------------------------------------|
C-------------------------------------------------|

==================================================================

Guitar 1 & 3
D-----------------------------------------------------------------|
A-----------------------------------------------------------------|
F-----------------------------------------------------------------|
C-0~~~~~~~~~~~~~~~~~~~~~~~~~~~~~~~~~~~~~~~~~~~~~~~~~~~~~~~~~~~~~~-|
G-0~~~~~~~~~~~~~~~~~~~~~~~~~~~~~~~~~~~~~~~~~~~~~~~~~~~~~~~~~~~~~~-|
C-0~~~~~~~~~~~~~~~~~~~~~~~~~~~~~~~~~~~~~~~~~~~~~~~~~~~~~~~~~~~~~~-|

Guitar 2
D-----------------------------------------------------------------|
A-----------------------------------------------------------------|
F-----------------------------------------------------------------|
C-12~~~~~~~~~~~~~~~~~~~~~~~~~~~~~~~~~~~~~~~~~~~~~~~~~~~~~~~~~~~~~-|
G-----------------------------------------------------------------|
C-----------------------------------------------------------------|

==================================================================
==================================================================
==================================================================

Tab Legend
h  -  hammer-on
p  -  pull-off
/  -  slide up
\  -  slide down
ps/-  pickslide up
ps\-  pickslide down
~  -  let ring
pm.-  palm mute
b  -  bend
r  -  return from bend
*  -  harmonic
x  -  dead note
^  -  Whammy bar
^\ -  Whammy bar (hold down)

There you have it! I hope this tab helped and if you’ve got any problems, check out my
video for visual help. Thanks, oh and one last thing... ROCK OUT!!!!
Tap to rate this tab
 
# A B C D E F G H I J K L M N O P Q R S T U V W X Y Z