Song name
# A B C D E F G H I J K L M N O P Q R S T U V W X Y Z

As Tall As Lions - Circles tab

www.myspace.com/josha777

these are just the main guitars parts...
repeat these however he plays it on the album or live...
his guitar is usually in d tuning (dgcfad)
with a capo on first fret...

d#|----------------------|
a#|---------8---------8--|
f#|---7---------7--------|
c#|------8---------8-----|
g#|-6---------6----------|
d#|----------------------|

d#|----------------------|
a#|---------4---------6--|
f#|---3---------3--------|
c3|------5---------5-----|
g#|-3---------3----------|
d#|----------------------|
Tap to rate this tab
# A B C D E F G H I J K L M N O P Q R S T U V W X Y Z