Song name
# A B C D E F G H I J K L M N O P Q R S T U V W X Y Z

Ashanti - Only You tab

E|------------------------------------|
B|------------------------------------|
G|------------------------------------|
D|------------------------------------|
A|----7---------------5--8--5--8------|
E|-5--------5--7--8-------------------|


E|------------------------------------|
B|------------------------------------|
G|------------------------------------|
D|------------------------------------|
A|----7---------------5--8--5--8--7---|
E|-5--------5--7--8-------------------|

And that's pretty much it.. =)
Tap to rate this tab
 
# A B C D E F G H I J K L M N O P Q R S T U V W X Y Z