Song name
# A B C D E F G H I J K L M N O P Q R S T U V W X Y Z

Ashes Divide - The Stone tab

Help us improve GuitareTab! Take a short survey!
Ashes Divide		The Stone
Standard Tuning

Intro	Part 1
e---------------------------------------------------------------------------------------------------|
B---------------------------------------------------------------------------------------------------|
G---------------------------------------------------------------------------------------------------|
D-----------------------13~----------------------13-11/13/11----------------------------------------|
A-11~-13/13-14-13-11/11-------13/13-14-13-11/11-----------------13/13-14-13-11/11-9-----------------|
E----------------------------------------------------------------------------------------11-11b-11b-|

Intro	Part 2
e----------------------------------------------------------------------------------------------------|
B----------------------------------------------------------------------------------------------------|
G----------------------------------------------------------------------------------------------------|
D-----------------------11-11(x4)-----11(x3)-----------------------11-11(x4)-12(x3)-14(x2)-----------|
A-11-11(x4)-14-14(x3)-------------14-----------11-11(x4)-14-14(x3)-----------------------------------|
E----------------------------------------------------------------------------------------------------|

Intro	Part 3
e----------------------------------------------------------------------------------11/11h12p11-------|
B-------------------------------------------------------------------11/11/12/11----------------------|
G-------------------------------------------------------------------------------13-------------------|
D----------------------11-11(x4)-----11(x3)----------------------------------------------------------|
A-11-11(x4)-14-14(x3)------------14-----------11-11(x4)-14-14(x3)------------------------------------|
E----------------------------------------------------------------------------------------------------|

Verse
G#	B	E	C#/D#
G#	F#	E

Chorus
C#	F#	A	B
C#	F#	A	E

Solo
e----------------------------------------------------------16h17p16------------|
B-16h17-16h17-16h17p16---------------------------------------------------------|
G--------------------------14-13-13-13/11-11/13-13----------------------13/13--|
D------------------------------------------------------------------------------|
A------------------------------------------------------------------------------|
E------------------------------------------------------------------------------|

E|-17-17-17-17-17-16-14---------------17-16-14--------------19-19-19-19h21p19--|
B|-----------------------------------------------------------------------------|
G|-----------------------14-14-14-14-------------------------------------------|
D|-----------------------------------------------------------------------------|
A|-----------------------------------------------------------------------------|
E|-----------------------------------------------------------------------------|

Verse

Chorus

Into Part 1

Bridge
C#	D	D#	D		C#	D	D#	D

Chorus (x2)
Related for The Stone tab