Song name
# A B C D E F G H I J K L M N O P Q R S T U V W X Y Z

Ashlee Simpson - Better Off tab

E -------------3----3h----3--3----3---3---3---------------3--3h----3--3----3---3---3-|
B -------------3----3h----3--3----3---3---3---------------3--3h----3--3----3---3---3-|
G -------------0----0h----0--0----0---0---0---------------0--0h----0--0----0---0---0-|
D -------------0----0h----0--0----0---0---0---------------2--2h----2--2----2---2---2-|
A -------------2----2h----2--2----2---2---2-----3---3-----3--3h----3--3----3---3---3-|
E ----3--3-----3----3h----3--3----3---3---3------------------------------------------|

E----------------3--3h----3---3----3---3---3--------------------3--3h-----3--3----3---3----3--|
B----------------3--3h----3---3----3---3---3--------------------3--3h-----3--3----3---3----3--|
G----------------0--0h----0---0----0---0---0--------------------0--0h-----0--0----0---0----0--|
D----------------2--2h----2---2----2---2---2--------------------2--2h-----2--2----2---2----2--|
A------2---2-----2--2h----2---2----2---2---2---------3---3------3--3h-----3--3----3---3----3--|
E---------------------------------------------------------------------------------------------|
E -------------3----3h----3--3----3---3---3---------------3--3h----3--3----3---3---3----------|
B -------------3----3h----3--3----3---3---3---------------3--3h----3--3----3---3---3----------|
G -------------0----0h----0--0----0---0---0---------------0--0h----0--0----0---0---0----------|
D -------------0----0h----0--0----0---0---0---------------2--2h----2--2----2---2---2----------|
A -------------2----2h----2--2----2---2---2-----3---3-----3--3h----3--3----3---3---3----------|
E ----3--3-----3----3h----3--3----3---3---3---------------------------------------------------|

E----------------3--3h----3---3----3---3---3--------------------3--3h-----3--3----3---3----3--|
B----------------3--3h----3---3----3---3---3--------------------3--3h-----3--3----3---3----3--|
G----------------0--0h----0---0----0---0---0--------------------0--0h-----0--0----0---0----0--|
D----------------2--2h----2---2----2---2---2--------------------2--2h-----2--2----2---2----2--|
A------2---2-----2--2h----2---2----2---2---2---------3---3------3--3h-----3--3----3---3----3--|
E---------------------------------------------------------------------------------------------|


E-----0------------0---------0------------0----|
B-----0------------1---------0------------1----|
G-----0------------0---------0------------0----|
D-----2------------2---------2------------2----|
A-----2------------3---------2------------3----|
E-----0------------0---------0------------0----|


E---3--3--3--3--3--3--3--3---------------------------------|
B --5--5--5--5--5--5--5--5---------------------------------|
G---5--5--5--5--5--5--5--5---------------------------------|
D---3--3--3--3--3--3--3--3---5--5--5--5--5--5--5--5--------|
A---3--3--3--3--3--3--3--3---5--5--5--5--5--5--5--5--------|
E---3--3--3--3--3--3--3--3---3--3--3--3--3--3--3--3--------|

E--------------------------------------------------------------|
B--------------------------------------------------------------|
G--------------------------------------------------------------|
D--7--7--7--7--7--7--7--7---3--3--3--3--3--3--3--3-------------|
A--7--7--7--7--7--7--7--7---3--3--3--3--3--3--3--3-------------|
E--5--5--5--5--5--5--5--5---1--1--1--1--1--1--1--1-------------|

E---3--3--3--3--3--3--3--3---------------------------------|
B --5--5--5--5--5--5--5--5---------------------------------|
G---5--5--5--5--5--5--5--5---------------------------------|
D---3--3--3--3--3--3--3--3---5--5--5--5--5--5--5--5--------|
A---3--3--3--3--3--3--3--3---5--5--5--5--5--5--5--5--------|
E---3--3--3--3--3--3--3--3---3--3--3--3--3--3--3--3--------|

E--------------------------------------------------------------|
B--------------------------------------------------------------|
G--------------------------------------------------------------|
D--7--7--7--7--7--7--7--7---3--3--3--3--3--3--3--3-------------|
A--7--7--7--7--7--7--7--7---3--3--3--3--3--3--3--3-------------|
E--5--5--5--5--5--5--5--5---1--1--1--1--1--1--1--1-------------|

E -------------3----3h----3--3----3---3---3---------------3--3h----3--3----3---3---3-|
B -------------3----3h----3--3----3---3---3---------------3--3h----3--3----3---3---3-|
G -------------0----0h----0--0----0---0---0---------------0--0h----0--0----0---0---0-|
D -------------0----0h----0--0----0---0---0---------------2--2h----2--2----2---2---2-|
A -------------2----2h----2--2----2---2---2-----3---3-----3--3h----3--3----3---3---3-|
E ----3--3-----3----3h----3--3----3---3---3------------------------------------------|

E----------------3--3h----3---3----3---3---3--------------------3--3h-----3--3----3---3----3--|
B----------------3--3h----3---3----3---3---3--------------------3--3h-----3--3----3---3----3--|
G----------------0--0h----0---0----0---0---0--------------------0--0h-----0--0----0---0----0--|
D----------------2--2h----2---2----2---2---2--------------------2--2h-----2--2----2---2----2--|
A------2---2-----2--2h----2---2----2---2---2---------3---3------3--3h-----3--3----3---3----3--|
E---------------------------------------------------------------------------------------------|


E -------------3----3h----3--3----3---3---3---------------3--3h----3--3----3---3---3-|
B -------------3----3h----3--3----3---3---3---------------3--3h----3--3----3---3---3-|
G -------------0----0h----0--0----0---0---0---------------0--0h----0--0----0---0---0-|
D -------------0----0h----0--0----0---0---0---------------2--2h----2--2----2---2---2-|
A -------------2----2h----2--2----2---2---2-----3---3-----3--3h----3--3----3---3---3-|
E ----3--3-----3----3h----3--3----3---3---3------------------------------------------|

E----------------3--3h----3---3----3---3---3--------------------3--3h-----3--3----3---3----3--|
B----------------3--3h----3---3----3---3---3--------------------3--3h-----3--3----3---3----3--|
G----------------0--0h----0---0----0---0---0--------------------0--0h-----0--0----0---0----0--|
D----------------2--2h----2---2----2---2---2--------------------2--2h-----2--2----2---2----2--|
A------2---2-----2--2h----2---2----2---2---2---------3---3------3--3h-----3--3----3---3----3--|
E---------------------------------------------------------------------------------------------|

E----0----------0--------0----------0----|
B----0----------1--------0----------1----|
G----0----------0--------0----------0----|
D----2----------2--------2----------2----|
A----2----------3--------2----------3----|
E----0----------0--------0----------0----|


E---3--3--3--3--3--3--3--3---------------------------------|
B --5--5--5--5--5--5--5--5---------------------------------|
G---5--5--5--5--5--5--5--5---------------------------------|
D---3--3--3--3--3--3--3--3---5--5--5--5--5--5--5--5--------|
A---3--3--3--3--3--3--3--3---5--5--5--5--5--5--5--5--------|
E---3--3--3--3--3--3--3--3---3--3--3--3--3--3--3--3--------|

E--------------------------------------------------------------|
B--------------------------------------------------------------|
G--------------------------------------------------------------|
D--7--7--7--7--7--7--7--7---3--3--3--3--3--3--3--3-------------|
A--7--7--7--7--7--7--7--7---3--3--3--3--3--3--3--3-------------|
E--5--5--5--5--5--5--5--5---1--1--1--1--1--1--1--1-------------|

E---3--3--3--3--3--3--3--3---------------------------------|
B --5--5--5--5--5--5--5--5---------------------------------|
G---5--5--5--5--5--5--5--5---------------------------------|
D---3--3--3--3--3--3--3--3---5--5--5--5--5--5--5--5--------|
A---3--3--3--3--3--3--3--3---5--5--5--5--5--5--5--5--------|
E---3--3--3--3--3--3--3--3---3--3--3--3--3--3--3--3--------|

E--------------------------------------------------------------|
B--------------------------------------------------------------|
G--------------------------------------------------------------|
D--7--7--7--7--7--7--7--7---3--3--3--3--3--3--3--3-------------|
A--7--7--7--7--7--7--7--7---3--3--3--3--3--3--3--3-------------|
E--5--5--5--5--5--5--5--5---1--1--1--1--1--1--1--1-------------|
Tap to rate this tab
 
# A B C D E F G H I J K L M N O P Q R S T U V W X Y Z