Song name
# A B C D E F G H I J K L M N O P Q R S T U V W X Y Z

Asking Alexandria - I Used To Have A Best Friend But Then He Gave Me An Std tab

i have split the song into pieces so it will be alot easier to learn
and understandable so it wont get all slopy and nasty 

enjoy!!!!!!!!!!



Intro 
(both guitars do the same for the first time)
e--------------------------------------------------------------------|
B--------------------------------------------------------------------|
G-----10-10-10-10-10------10-10-10-10-10-----12-12-12-12-12--9-9-8-8-|
D-0--0-x--x--x--x--x--0-0-x--x--x--x--x--8-8-x--x--x--x--x---x-x-x-x-|
A-0--0-8--8--8--8--8--0-0-8--8--8--8--8--8-8-10-10-10-10-10--7-7-8-8-|
D-0--0----------------0-0----------------8-8-------------------------|


e----------------------------------------------------------------------|
B----------------------------------------------------------------------|
G-----10-10-10-10-10------10-10-10-10-10-----12-12-12-12-12------------|
D-0--0-x--x--x--x--x--0-0-x--x--x--x--x--8-8-x--x--x--x--x---10-8-7h8--|
A-0--0-8--8--8--8--8--0-0-8--8--8--8--8--8-8-10-10-10-10-10----------8-|
D-0--0----------------0-0----------------8-8---------------------0-----|
                                                                 .




-----------------------------------------------------------------------------

(intro part two,this is where cameron comes in)
(repeat these twice)


 Guitar 1
e--------------------------------------------------------------------|
B--------------------------------------------------------------------|
G-----10-10-10-10-10------10-10-10-10-10-----12-12-12-12-12--9-9-8-8-|
D-0--0-x--x--x--x--x--0-0-x--x--x--x--x--8-8-x--x--x--x--x---x-x-x-x-|
A-0--0-8--8--8--8--8--0-0-8--8--8--8--8--8-8-10-10-10-10-10--7-7-8-8-|
D-0--0----------------0-0----------------8-8-------------------------|

 Guitar 2
e-------------------------------------------------------------------------|
B-------------------------------------------------------------------------|
G------14-14-14-14-14------14-14-14-14-14-----15-15-15-15-15--12-12-13-13-|
D-0--0-x--x--x--x--x---0-0-x--x--x--x--x--8-8-x--x--x--x--x---x--x--x--x--|
A-0--0-12-12-12-12-12--0-0-12-12-12-12-12-8-8-13-13-13-13-13--10-10-12-12-|
D-0--0-----------------0-0----------------8-8-----------------------------|


   e------------|
   B------------|
   G------------|
   D-10-8-7h8---| do this the second ending.
   A---------8--|
   D-----0------|
         .

---------------------------------------------------------------------------


(right afterr)




 Both guitars
e--------------------------------------------------|
B--------------------------------------------------|
G--------------------------------------------------|
D-0~----------------------------------10-8-7h8-----|
A-0~--00--00000-00--00000-00--00000-----------8----|
D-0~--00--00000-00--00000-00--00000-------0--------|
      ..  ..... ..  ..... ..  .....       .

e------------------------------------------------------------|
B------------------------------------------------------------|
G------------------------------------------------------------|
D-----------------------------------10-8-7h8---8-7-5h7-------|
A-0-00--00000-00--00000-00--00000-----------8---------7------|
D-0-00--00000-00--00000-00--00000-------0---------0----------|
    ..  ....  ..  ..... ..  .....       .         .




---------------------------------------------------------------------------


this is the part that sounds like sex! ;D




 Guitar 1
e-------------------------------------------|
B-------------------------------------------|
G-------------------------------------------|
D-------------------------------------------|
A-0-0--000--0-0--000-0-0--000-6h9p6-5h8p5---| those hammer-ons and pull
D-0-0--000--0-0--000-0-0--000---------------| off's are really fast and 
  . .  ...  . .  ... . .  ...                 extended.

 Guitar 2
e---------------------------------------------|
B---------------------------------------------|
G---------------------------------------------|
D---------------------------------------------|
A-0-0--000--0-0--000-0-0--000-8h12p8-7h10p7---|
D-0-0--000--0-0--000-0-0--000-----------------|





 Guitar 1
e---------------------------------------------------|
B---------------------------------------------------|
G------------------------------------------12\------|
D-------------------------------------7-10----------|
A-0-0--000--0-0--000-0-0--000-----6-9---------------|
D-0-0--000--0-0--000-0-0--000-5-8-------------------|
  . .  ...  . .  ... . .  ...

 Guitar 2
e---------------------------------------------------|
B---------------------------------------------------|
G--------------------------------------------15\----|
D--------------------------------------10-14--------|
A-0-0--000--0-0--000-0-0--000------9-13-------------|
D-0-0--000--0-0--000-0-0--000-8-12------------------|
  . .  ...  . .  ... . .  ...



 both guitars
e-----------------------------------------|
B-----------------------------------------|
G-----------------------------------------|
D-----------------------------------------|
A-0-0~--000~--0-0~--000-0-0~--000~---3*---|
D-1-1~--111~--1-1~--111-1-1~--111~--------|
  . .   ...   . .   ... . .   ...

 Guitar 1
e-----------------------------------------------|
B-----------------------------------------------|
G-----------------------------------------------|
D------------------------------------------0~---|
A-0-0--000--0-0--000-0-0--000-6h9p6-5h8p5--0~---|
D-0-0--000--0-0--000-0-0--000--------------0~---|
  . .  ...  . .  ... . .  ...              .

Guitar 2
e-----------------------------------------------|
B-----------------------------------------------|
G-----------------------------------------------|
D-------------------------------------------0~--|
A-0-0--000--0-0--000-0-0--000-8h12p8-7h10p7-0~--|
D-0-0--000--0-0--000-0-0--000---------------0~--|
  . .  ...  . .  ... . .  ...               





--------------------------------------------------------------------------


what is this a verse?



 both guitars
e----------------------------------------------|
B----------------------------------------------|
G----------------------------------------------|
D----------------------------------------------| repeat this twice.
A-00---000-0-00--000-000-000-000-0-00--000-000-|
D-00---000-0-00--000-000-000-000-0-00--000-000-|
  ..   ... . ..  ... ... ... ... . ..  ... ...




--------------------------------------------------------------------------




Chorus! :DDD



 Guitar 1
e--------------------------------------------|
B--------------------------------------------|
G--------------------------------------------|
D-0-----8------3------0-------8------10------|
A-0-x16-8-(x8)-3-(x8)-0-(x16)-8-(x8)-10-(x8)-|
D-0-----8------3------0-------8------10------|


 Guitar 2
e|---------------------------------------|
B|---------------------------------------|
G|-14------9------10-----14------15------|
D|-x--x16--x--x8--x--x8--x--x16--x--x16--|
A|-12------7------8------12------13------|
D|---------------------------------------|




---------------------------------------------------------------------------



riff? that also sound like sex!!



 Guitar 1
e----------------------------------------------------------------|
B----------------------------------------------------------------|
G--------9-9-9-----------10-10-10--------------------------------|
D-0------x-x-x--0--------x--x--x---0-----------------------------| repeat.
A-0-000--7-7-7--0-0-000--8--8--8---0-----------------------------| four times
D-0-000---------0-0-000------------0-0000h8888/10101010/12121212-|
    ...           . ...


 Guitar 2 (comes in after the second time you play the top bar)
e---------------------------------------------------------------|
B---------------------------------------------------------------|
G--------12-12-12-----------14-14-14----------------------------|
D-0------x--x--x---0--------x--x--x---0-------------------------|
A-0-000--10-10-10--0-0-000--12-12-12--0-------------------------|
D-0-000------------0-0-000------------0-0000h88888\77777\5555---|
    ...              . ...            





---------------------------------------------------------------------------




 chorus repeats again here.




----------------------------------------------------------------------------





synthesizer part with the echoes and shit you know?



 both guitars
e---------------------------------------------------|
B---------------------------------------------------|
G---------------------------------------------------|
D-0~------------------------------------------------|
A-0~-----0000----0000-00-0----00000----0000-00-0-0~-|
D-0~-----0000----0000-00-0----00000----0000-00-0-0~-|
         ....    .... .. .    .....    .... .. . .





----------------------------------------------------------------------------





i dont really know the strumming pattern but i dont think there is any
in this part so i think you can freely strum these octives and chords
below.(you can tell when you have to switch in the song)





e-------------------------------------------------------------------|
B-------------------------------------------------------------------|
G-10-------12------10-------9--------10----12------10----9----7-----|
D-x--------x--------x-------x--------x------x-------x----x----x-----|
A-8--------10-------8-------7--------8-----10-------8----7----5-----|
D-------------------------------------------------------------------|




----------------------------------------------------------------------------





then is this




e|------------------|
B|------------------|
G|-10-------12------|
D|-x--x10---x--x10--|
A|-8--------10------|
D|------------------|





---------------------------------------------------------------------------




then some sexy pull off's




 Guitar 1
e|------------------------------------|
B|------------------------------------| 
G|------------------------------------| 
D|-----10p0--------10-10p0------------|
A|--0--------00-0----------8p0-10p0---|
D|--0--------00-0---------------------|
    .        .. .

 Guitar 2
e|------------------------------------|
B|------------------------------------|
G|------------------------------------|
D|-----14p0--------14-14p0------------| 
A|--0--------00-0----------12p0-13p0--|
D|--0--------00-0---------------------|
    .        .. .






---------------------------------------------------------------------------





then is this again




e|------------------|
B|------------------|
G|-10-------12------|
D|-x--x10---x--x10--|
A|-8--------10------|
D|------------------|






---------------------------------------------------------------------------







then the final breakdown.






e-----------------------------------------------------|
B-----------------------------------------------------| repeat as needed.
G-----------------------------------------------------|
D-----------------------------------------------------|
A-0000-00-0000-00-00-00-00--0000-00-00000000-00-00-00-|
D-0000-00-0000-00-00-00-00--0000-00-00000000-00-00-00-|
  .... .. .... .. .. .. ..  .... .. ........ .. .. ..




please comment rate and whatnot(:


Tap to rate this tab
# A B C D E F G H I J K L M N O P Q R S T U V W X Y Z