Song name
# A B C D E F G H I J K L M N O P Q R S T U V W X Y Z

Asp - Am Ende tab

Am Ende

Artist:ASP
Album: Zaubererbruder - Der Krabat Liederzyklus (2008)

Transcribed by mordred91

Duration Legend
---------------
Q - quarter 
E - 8th

 Q=125
 4/4


-CAPO 1.-!!!


 Intro
 
  Gtr I
  E E E E E E E E   E E E E E E E E
|-------0---------|-------0---------|
|-----0---0-------|-----0---0-------|
|---0-------0---0-|---0-------0---0-|
|-2-----------2---|-2-----------2---|
|-----------------|-----------------|
|-----------------|-----------------|


   Verse
    $
    E E E E E E E E   E E E E E E E E   E E E E E E E E   E E E E E E E E
||--------0---------|-------0---------|-----------------|------------------|
||o-----0---0-------|-----3---3-------|-------1---------|-------0----------|
||----0-------0---0-|---2-------2---2-|-----0---0-------|-----0---0--------|
||--2-----------2---|-0-----------0---|---2-------2---2-|---2-------2---2--|
||o-----------------|-----------------|-3-----------3---|-2-----------2----|
||------------------|-----------------|-----------------|------------------|


                                     1.,2.,3.
  E E E E E E E E   E E E E E E E E   E E E E E E E E   E E E E E E E E  4x
|-----------------|-----------------|-----------------|------------------||
|-------0---------|-------0---------|-------0---------|-------0---------o||
|-----2---2-------|-----2---2-------|-----0---0-------|-----0---0--------||
|---2-------2---2-|---2-------2---2-|---4-------4---4-|---4-------4---4--||
|-0-----------0---|-0-----------0---|-2-----------2---|-2-----------2---o||
|-----------------|-----------------|-----------------|------------------||


  4.
                              D.S.
  E E E E E E E E   E E E E E E E E
|-------0---------|-------0---------|
|-----0---0-------|-----0---0-------|
|---0-------0---0-|---0-------0---0-|
|-----------------|-----------------|
|-2-----------2---|-2-----------2---|
|-----------------|-----------------|


   Interludes
                                     
    Q  E E E E E E   Q  E E E E E E   Q  E E E E E E   Q  E E E E E E   4x
||-----------------|----------------|----------------|------------------||
||o----------------|----------------|----------------|-----------------o||
||-------------0-2-|-4--4-2-4-5-4-2-|-0--0---0-2-0---|-0--0-------------||
||--2--2-0-2-4-----|----------------|------4-------4-|------4-2-0---0---||
||o----------------|----------------|----------------|------------2----o||
||-----------------|----------------|----------------|------------------||


  
  Q  E E E E E E   
|----------------|
|----------------|
|-4--4-2-------2-|<--Play this during the THIRD time 
|--------5-4-5---|   of the riff above in the THIRD measure
|----------------|
|----------------|
Tap to rate this tab
# A B C D E F G H I J K L M N O P Q R S T U V W X Y Z