Song name
# A B C D E F G H I J K L M N O P Q R S T U V W X Y Z

At The Gates - Within tab

#----------------------------------PLEASE NOTE---------------------------------#
#This file is the author's own work and represents their interpretation of the #
#song. You may only use this file for private study, scholarship, or research. #
#------------------------------------------------------------------------------##

                                     WITHIN
                           As recorded by At The Gates
                (From the 1992 Album THE RED IN THE SKY IS OURS)

Words and Music by At The Gates
Transcribed by Donald Alasdair Morrison

Gtr I (B E A D F# B) - 'Distorted; panned to right'
Gtr II (B E A D F# B) - 'Distorted; panned to left'
Gtr III (B E A D F# B) - 'Distorted; centred'
Gtr IV (B E A D F# B) - 'Violin arr. for guitar'

    Q=110
    N.C.
   4/4
    Gtrs I, II
    Q  E Q  E Q    Q  E Q  Q.
||---------------|---------------||
||o--------------|--------------o||
||---------------|---------------||
||---------------|---------5-----||
||o----6-7-------|----6-7-------o||
||--4-------6-7--|-4-------------||


    Gtr I
    Q  E Q  E     Q    Q  E Q  Q.
||-------------------|---------------||
||o------------------|--------------o||
||-------------------|---------------||
||-------------------|---------5-----||
||o----6-7-----------|----6-7-------o||
||--4-------6-----7--|-4-------------||
|
|   Gtr II
|           |-3-|
|   Q  E Q  S S S Q    Q  E Q  Q.
||-------------------|---------------||
||o------------------|--------------o||
||-------------------|---------4-----||
||-----4-5--4h5p4----|----4-5--------||
||o-6-------------7--|-6------------o||
||-------------------|---------------||


  Eb5 D5 B5 D5 C5   Eb5 D5 B5         Eb5 D5 B5 D5 C5   Eb5 D5 B5
  Gtrs I, II
                                 ~~                            ~~~~~~~~~
  Q   E  Q  E  Q    Q   E  Q.    Q    Q   E  Q  E  Q    Q   E  Q.   +Q
|-----------------|-----------------|-----------------|-------------------|
|-----------------|-----------------|-----------------|-------------------|
|-----------------|-----------------|-----------------|-------------------|
|-----------------|-------------/5--|-----------------|--------2----(2)---|
|-6---5--2--5--3--|-6---5--2--------|-6---5--2--5--3--|-6---5--2----(2)---|
|-4---3--0--3--1--|-4---3--0--------|-4---3--0--3--1--|-4---3--0----(0)---|
                                Wide vibrato on fourth string  *

  Eb5 D5 B5 D5 C5   Eb5 D5 B5         Eb5 D5 B5 D5 C5   Eb5 D5 B5
                                 ~~                         PM ~~~~~~~~~
  Q   E  Q  E  Q    Q   E  Q.    Q    Q   E  Q  E  Q    Q   E  Q.   +Q
|-----------------|-----------------|-----------------|-------------------|
|-----------------|-----------------|-----------------|-------------------|
|-----------------|-----------------|-----------------|-------------------|
|-----------------|-------------/5--|-----------------|--------2----(2)---|
|-6---5--2--5--3--|-6---5--2--------|-6---5--2--5--3--|-6---5--2----(2)---|
|-4---3--0--3--1--|-4---3--0--------|-4---3--0--3--1--|-4---3--0----(0)---|
                                Wide vibrato on fourth string  *

    N.C.
    Gtr I
    Q  E Q  E Q    Q  E Q  Q.
||---------------|----------------||
||o--------------|---------------o||
||---------------|----------------||
||---------------|---------5------||
||o----6-7-------|----6-7--------o||
||--4-------6-7--|-4--------------||
|
|   Gtr II
|   Q  E Q  E Q    Q  E Q  E  Q
||---------------|----------------||
||o--------------|---------------o||
||---------------|----------------||
||--9------------|-9-------5--8---||
||o----6-7-------|----6-7--------o||
||----------6-7--|----------------||
|
|   Gtr III
|   Q  E Q  E Q    Q  E Q  Q.
||---------------|----------------||
||o--------------|---------8-----o||
||-----8-9-------|----8-9---------||
||--6-------8-9--|-6--------------||
||o--------------|---------------o||
||---------------|----------------||


    Q  E Q  E     Q    Q  E Q  Q.       +W           +W
||-------------------|---------------||------------|--------||
||o------------------|--------------o||------------|--------||
||-------------------|---------------||------------|--------||
||-------------------|---------5-----||-(5)--------|-(5)----||
||o----6-7-----------|----6-7-------o||------------|--------||
||--4-------6-----7--|-4-------------||------------|--------||
|
|           |-3-|
|   Q  E Q  S S S Q    Q  E Q  Q.       +W           +W
||-------------------|---------------||------------|--------||
||o------------------|--------------o||------------|--------||
||-------------------|---------4-----||-(4)--------|-(4)----||
||-----4-5--4h5p4----|----4-5--------||------------|--------||
||o-6-------------7--|-6------------o||------------|--------||
||-------------------|---------------||------------|--------||
|
|   Q  E Q  E     Q    Q  E Q  Q.       +W           +W
||-------------------|---------------||------------|--------||
||o------------------|---------8----o||-(8)--------|-(8)----||
||-----8-9-----------|----8-9--------||------------|--------||
||--6-------8-----9--|-6-------------||------------|--------||
||o------------------|--------------o||------------|--------||
||-------------------|---------------||------------|--------||


  Q=190
 5/4                             4/4
  Gtr I
  |-3-| |-3-| |-3-| |-3-| |-3-|   |-3-| |-3-| |-3-| |-3-|
  E E E E E E E E E E E E E E E   E E E E E E E E E E E E
|-------------------------------|-------------------------|
|-------------------------------|-------------------------|
|-------------------------------|-------------------------|
|-------------------------------|-------------------------|
|-7h8p7-6h7p6-5h6p5-7h8p7-6h7p6-|-7h8p7-6h7p6-5h6p5-8h9p8-|
|-------------------------------|-------------------------|
|
| Gtr II
| H.                H             W
|-------------------------------|-------------------------|
|-------------------------------|-------------------------|
|-------------------------------|-------------------------|
|-------------------------------|-------------------------|
|-------------------------------|-------------------------|
|-------------------------------|-------------------------|


 5/4                             4/4
  |-3-| |-3-| |-3-| |-3-| |-3-|   |-3-| |-3-| |-3-| |-3-|
  E E E E E E E E E E E E E E E   E E E E E E E E E E E E
|-------------------------------|-------------------------|
|-------------------------------|-------------------------|
|-------------------------------|-------------------------|
|-------------------------------|-------------------------|
|-7h8p7-6h7p6-5h6p5-7h8p7-6h7p6-|-7h8p7-6h7p6-5h6p5-8h9p8-|
|-------------------------------|-------------------------|
|
| |-3-| |-3-| |-3-|               |-3-| |-3-| |-3-|
| E E E E E E E E E H             E E E E E E E E E Q
|-------------------------------|-------------------------|
|-------------------------------|-------------------------|
|-------------------------------|-------------------------|
|-5h6p5-4h5p4-3h4p3-------------|-5h6p5-4h5p4-3h4p3-------|
|-------------------------------|-------------------------|
|-------------------------------|-------------------------|


   5/4                             4/4
    |-3-| |-3-| |-3-| |-3-| |-3-|   |-3-| |-3-| |-3-| |-3-|
    E E E E E E E E E E E E E E E   E E E E E E E E E E E E
||--------------------------------|--------------------------||
||o-------------------------------|-------------------------o||
||--------------------------------|--------------------------||
||--------------------------------|--------------------------||
||o-7h8p7-6h7p6-5h6p5-7h8p7-6h7p6-|-7h8p7-6h7p6-5h6p5-8h9p8-o||
||--------------------------------|--------------------------||
|
|   |-3-| |-3-| |-3-| |-3-| |-3-|   |-3-| |-3-| |-3-| |-3-|
|   E E E E E E E E E E E E E E E   E E E E E E E E E E E E
||--------------------------------|--------------------------||
||o-------------------------------|-------------------------o||
||--------------------------------|--------------------------||
||--5h6p5-4h5p4-3h4p3-5h6p5-4h5p4-|-5h6p5-4h5p4-3h4p3-6h7p6--||
||o-------------------------------|-------------------------o||
||--------------------------------|--------------------------||


                                       1.              2.
    TP   TP     TP   TP     TP   TP     TP TPTPTP       TP TPTP TP
    H    H      H    H      H    H      Q  E E H        Q  E E  H
||------------|-----------|-----------|--------------||---------------|
||o-----------|-----------|-----------|-------------o||---------------|
||-------5----|------6----|------5----|--------4-----||---------4-----|
||--2---------|-3---------|-2---------|-3--5-6-------||-3--5-6--------|
||o-----------|-----------|-----------|-------------o||---------------|
||------------|-----------|-----------|--------------||---------------|
|
|   TP   TP     TP   TP     TP   TP     TP              TP
|   H    H      H    H      H    H      W               H       H
||------------|-----------|-----------|--------------||---------------|
||o-----------|-----------|-----------|-------------o||---------------|
||--4---------|-----------|-----------|--------------||---------------|
||-------5----|-6----3----|-6----2----|-3------------||-3-------------|
||o-----------|-----------|-----------|-------------o||---------------|
||------------|-----------|-----------|--------------||--------12\----|


  B5       C5              D5         Eb5
                TP TP TP                 TP TP TP
  W          Q  Q  Q  Q    W          Q  Q  Q  Q
|----------|-------------|----------|--------------|
|----------|-------------|----------|--------------|
|----------|-------------|----------|--------------|
|----------|----3--5--6--|----------|----2--3--5---|
|-2--------|-3-----------|-5--------|-6------------|
|-0--------|-1-----------|-3--------|-4------------|
|
|               TP TP TP                 TP TP TP
| W          Q  Q  Q  Q    W          Q  Q  Q  Q
|----------|-------------|----------|--------------|
|----------|-------------|----------|--------------|
|----------|-------------|----------|--------------|
|----------|----3--5--6--|----------|----2--3--5---|
|-2--------|-3-----------|-5--------|-6------------|
|-0--------|-1-----------|-3--------|-4------------|


  B5         C5              D5         B5
                TP TP  TP                  TP TP TP
  W          Q  Q  Q   Q     W          Q  Q  Q  Q
|----------|---------------|----------|--------------|
|----------|---------------|----------|--------------|
|----------|---------------|----------|--------------|
|----------|----3--5---6---|----------|----2--3--5---|
|-2--------|-3-------------|-5--------|-2------------|
|-0--------|-1-------------|-3--------|-0------------|
|
|               TP TP                      TP TP TP
| W          Q  Q  Q   Q     W          Q  Q  Q  Q
|----------|---------------|----------|--------------|
|----------|---------------|----------|--------------|
|----------|---------------|----------|--------------|
|----------|----3--5--[6]--|----------|----2--3--5---|
|-2--------|-3-------------|-5--------|-2------------|
|-0--------|-1-------------|-3--------|-0------------|


  N.C.
  Gtrs I, II
  TP         TP TP TP TP   TP         TP TP TP TP
  W          Q  Q  Q  Q    W          Q  Q  Q  Q
|----------|-------------|----------|--------------|
|----------|-------------|----------|--------------|
|----------|-------------|----------|--------------|
|----------|----3--5--6--|----------|----2--3--5---|
|----------|-------------|----------|--------------|
|-0--------|-1-----------|-3--------|-4------------|


  TP         TP TP TP TP   TP         TP TP TP TP
  W          Q  Q  Q  Q    W          Q  Q  Q  Q
|----------|-------------|----------|--------------|
|----------|-------------|----------|--------------|
|----------|-------------|----------|--------------|
|----------|----3--5--6--|----------|----2--3--5---|
|----------|-------------|----------|--------------|
|-0--------|-1-----------|-3--------|-0------------|


 5/4                             4/4
  Gtr I
  |-3-| |-3-| |-3-| |-3-| |-3-|   |-3-| |-3-| |-3-| |-3-|
  E E E E E E E E E E E E E E E   E E E E E E E E E E E E
|-------------------------------|-------------------------|
|-------------------------------|-------------------------|
|-------------------------------|-------------------------|
|-------------------------------|-------------------------|
|-7h8p7-6h7p6-5h6p5-7h8p7-6h7p6-|-7h8p7-6h7p6-5h6p5-8h9p8-|
|-------------------------------|-------------------------|
|
| Gtr II
| |-3-| |-3-| |-3-|               |-3-| |-3-| |-3-|
| E E E E E E E E E H             E E E E E E E E E Q
|-------------------------------|-------------------------|
|-------------------------------|-------------------------|
|-------------------------------|-------------------------|
|-5h6p5-4h5p4-3h4p3-------------|-5h6p5-4h5p4-3h4p3-------|
|-------------------------------|-------------------------|
|-------------------------------|-------------------------|


  Gtrs I, II
  TP         TP TP TP TP   TP         TP TP TP TP
  W          Q  Q  Q  Q    W          Q  Q  Q  Q
|----------|-------------|----------|--------------|
|----------|-------------|----------|--------------|
|----------|-------------|----------|--------------|
|----------|----3--5--6--|----------|----2--3--5---|
|----------|-------------|----------|--------------|
|-0--------|-1-----------|-3--------|-4------------|


  TP         TP TP TP TP   TP         TP TP TP TP
  W          Q  Q  Q  Q    W          Q  Q  Q  Q
|----------|-------------|----------|--------------|
|----------|-------------|----------|--------------|
|----------|-------------|----------|--------------|
|----------|----3--5--6--|----------|----2--3--5---|
|----------|-------------|----------|--------------|
|-0--------|-1-----------|-3--------|-0------------|


                                       1.              2.
    Gtr I
    TP   TP     TP   TP     TP   TP     TP TPTPTP       TP TPTP TP
    H    H      H    H      H    H      Q  E E H        Q  E E  H
||------------|-----------|-----------|--------------||---------------|
||o-----------|-----------|-----------|-------------o||---------------|
||-------5----|------6----|------5----|--------4-----||---------4-----|
||--2---------|-3---------|-2---------|-3--5-6-------||-3--5-6--------|
||o-----------|-----------|-----------|-------------o||---------------|
||------------|-----------|-----------|--------------||---------------|
|
|   Gtr II
|   TP   TP     TP   TP     TP   TP     TP              TP
|   H    H      H    H      H    H      W               H       H
||------------|-----------|-----------|--------------||---------------|
||o-----------|-----------|-----------|-------------o||---------------|
||--4---------|-----------|-----------|--------------||---------------|
||-------5----|-6----3----|-6----2----|-3------------||-3-------------|
||o-----------|-----------|-----------|-------------o||---------------|
||------------|-----------|-----------|--------------||--------12\----|


    TP   TP     TP   TP     TP   TP     TP TPTPTP
    H    H      H    H      H    H      Q  E E H
||------------|-----------|-----------|--------------||
||o-----------|-----------|-----------|-------------o||
||-------5----|------6----|------5----|--------4-----||
||--2---------|-3---------|-2---------|-3--5-6-------||
||o-----------|-----------|-----------|-------------o||
||------------|-----------|-----------|--------------||
|
|   TP   TP     TP   TP     TP   TP     TP
|   H    H      H    H      H    H      W
||------------|-----------|-----------|--------------||
||o-----------|-----------|-----------|-------------o||
||--4---------|-----------|-----------|--------------||
||-------5----|-6----3----|-6----2----|-3------------||
||o-----------|-----------|-----------|-------------o||
||------------|-----------|-----------|--------------||


   6/4
    Gtrs I, II
    TP TP TP TP TPTPTP   TP TP TP TP TP TP
    Q  Q  Q  Q  E E Q    Q  Q  Q  Q  Q  Q
||---------------------|--------------------||
||o--------------------|-------------------o||
||---------------------|--------------------||
||--3--5--6--3--6-5-6--|-3--6--5------------||
||o--------------------|----------2--1--2--o||
||---------------------|--------------------||


  Gtr I
  TP  TP TP TP  TPTPTP   TP  TP TP TP TP TP
  Q   Q  Q  Q   E E Q    Q   Q  Q  Q  Q  Q
|----------------------|--------------------|
|----------------------|--------------------|
|----------------------|--------------------|
|-3---5--6--3---6-5-6--|-3---6--5-----------|
|----------------------|-----------2--1--2--|
|----------------------|--------------------|
|
| Gtr II
| TP        TP           TP        TP TP TP
| H.        H.           H.        Q  Q  Q
|----------------------|--------------------|
|----------------------|--------------------|
|----------------------|--------------------|
|-----------2----------|--------------------|
|----------------------|-3---------2--1--2--|
|-1--------------------|--------------------|


    TP TP TP TP TPTPTP   TP TP TP TP TP TP
    Q  Q  Q  Q  E E Q    Q  Q  Q  Q  Q  Q
||---------------------|--------------------||
||o--------------------|-------------------o||
||---------------------|--------------------||
||--3--5--6--3--6-5-6--|-3--6--5------------||
||o--------------------|----------2--1--2--o||
||---------------------|--------------------||
|
|   TP TP TP TP TPTPTP   TP TP TP TP TP TP
|   Q  Q  Q  Q  E E Q    Q  Q  Q  Q  Q  Q
||---------------------|--------------------||
||o--------------------|-------------------o||
||--5--7--8--5--8-7-8--|-5--8--7------------||
||---------------------|----------4--3--4---||
||o--------------------|-------------------o||
||---------------------|--------------------||


  TP  TP TP TP  TPTPTP   TP  TP TP TP TP TP
  Q   Q  Q  Q   E E Q    Q   Q  Q  Q  Q  Q
|----------------------|--------------------|
|----------------------|--------------------|
|----------------------|--------------------|
|-3---5--6--3---6-5-6--|-3---6--5-----------|
|----------------------|-----------2--1--2--|
|----------------------|--------------------|
|
| TP        TP           TP        TP TP TP
| H.        H.           H.        Q  Q  Q
|----------------------|--------------------|
|----------------------|--------------------|
|----------------------|--------------------|
|-----------2----------|--------------------|
|----------------------|-3---------2--1--2--|
|-1--------------------|--------------------|


   4/4
    Gtrs I, II
                        TPTP                              TPTP   TP
    E E  E E E  E E E   E H..         E E  E E E  E E E   E H    Q.
||--------------------|-------------|-------------------|---------------||
||o-------------------|-------------|-------------------|--------------o||
||--------------------|-------------|-------------------|---------------||
||------10-----10-----|-------------|-----10-----10-----|---------------||
||o-7-7----7-7----7-7-|-8-5---------|-7-7----7-7----7-7-|-8------------o||
||--------------------|-------------|-------------------|---6----3------||


  D5                                 N.C.
  Gtr I
  E E Q   E E Q    E E Q  E E Q      E E Q  E E Q    E E Q  E E Q    6x
|----------------|---------------||----------------|-----------------||
|----------------|---------------||o---------------|----------------o||
|----------------|---------------||----------------|-----------------||
|-----5----------|-----5---------||------5---------|-----5-----------||
|-------------6--|--------4-4-3--||o------------6--|--------4-4-3---o||
|-3-3-----3-3----|-3-3-----------||--3-3----3-3----|-3-3-------------||
|                  On sixth repeat, play a D at *
|                    fifth fret on fourth string.
| Gtr II
| E E H.           W                 E E Q  E E Q    E E Q  E E Q    6x
|----------------|---------------||----------------|-----------------||
|----------------|---------------||o---------------|----------------o||
|----------------|---------------||------7---------|-----7-----------||
|----------------|---------------||-------------8--|--------6-6-5----||
|-5-5------------|---------------||o-5-5----5-5----|-5-5------------o||
|-3-3------------|---------------||----------------|-----------------||


   4/4
    Gtrs I, II
                        TPTP                              TPTP   TP
    E E  E E E  E E E   E H..         E E  E E E  E E E   E H    Q.
||--------------------|-------------|-------------------|---------------||
||o-------------------|-------------|-------------------|--------------o||
||--------------------|-------------|-------------------|---------------||
||------10-----10-----|-------------|-----10-----10-----|---------------||
||o-7-7----7-7----7-7-|-8-5---------|-7-7----7-7----7-7-|-8------------o||
||--------------------|-------------|-------------------|---6----3------||


   4/4
    Gtr I
                         TPTP                                TPTP     TP
    E E  E E E  E E E    E H..          E E  E E E  E E E    E H      Q.
||--------------------|---------------|-------------------|------------------||
||o-------------------|---------------|-------------------|-----------------o||
||--------------------|---------------|-------------------|------------------||
||------10-----10-----|---------------|-----10-----10-----|------------------||
||o-7-7----7-7----7-7-|--8-5----------|-7-7----7-7----7-7-|--8--------------o||
||--------------------|---------------|-------------------|----6------3------||
|
|   Gtr II
|                        TPTP    TP                          TPTP   TP
|   E E  E E E  E E E    E Q.    H      E E  E E E  E E E    E Q.   H
||--------------------|---------------|-------------------|------------------||
||o-------------------|---------------|-------------------|-----------------o||
||------12-----12-----|---------------|-----12-----12-----|------------------||
||--9-9----9-9----9-9-|-10-------8----|-9-9----9-9----9-9-|-10---------------||
||o-------------------|----9----------|-------------------|---------9-------o||
||--------------------|---------------|-------------------|----8-------------||


  Wx7          H     H         E E Q  E E Q    E E Q  E E Q    4x
|------------|-------------||----------------|-----------------||
|------------|-------------||o---------------|----------------o||
|------------|-------------||----------------|-----------------||
|------------|-------------||------5---------|-----5-----------||
|------------|------12\----||o------------6--|--------4-4-3---o||
|------------|-------------||--3-3----3-3----|-3-3-------------||
|
| Wx7          H     H         E E Q  E E Q    E E Q  E E Q    4x
|------------|-------------||----------------|-----------------||
|------------|-------------||o---------------|----------------o||
|------------|-------------||------7---------|-----7-----------||
|------------|-------------||-------------8--|--------6-6-5----||
|------------|------12\----||o-5-5----5-5----|-5-5------------o||
|------------|-------------||----------------|-----------------||


  Q=120
  C5           N.C.
              6/8
                                       TP
  W            Q.   Q.     Q.   Q.     H.
|----------||------------|-----------|------------|
|----------||o-----------|-----------|------------|
|----------||------------|-----------|------------|
|----------||------------|-----------|------------|
|-3--------||o-3----2----|-4----3----|-7----------|
|-1--------||------------|-----------|------------|
|
|                                      TP    TP
| W            Q.   Q.     Q.   Q.     Q.    Q.
|----------||------------|-----------|------------|
|----------||o-----------|-----------|------------|
|----------||------------|-----------|------------|
|----------||------------|-----------|-9----10----|
|-3--------||o-3----2----|-4----3----|------------|
|-1--------||------------|-----------|------------|


                                         C#5  C5
  TP          TP
  H.          Q.   E E E   E E E E E E   Q.   Q.
|-----------|------------|-------------|------------||
|-----------|------------|-------------|-----------o||
|-----------|------------|---4-5-------|------------||
|-----------|--------4-5-|---------4-5-|------------||
|-5---------|-6----3-----|-2-----3-----|-4----3----o||
|-----------|------------|-------------|-2----1-----||
|
| TP   TP     TP
| Q.   Q.     Q.   E E E   E E E E E E   Q.   Q.
|-----------|------------|-------------|------------||
|-----------|------------|-------------|-----------o||
|-----------|------------|---4-5-------|------------||
|------8----|-7------4-5-|---------4-5-|------------||
|-5---------|------3-----|-2-----3-----|-4----3----o||
|-----------|------------|-------------|-2----1-----||


  Q=190
  N.C.
 6/4
                        TP TP TP TP TP TP
  W.                    Q  Q  Q  Q  Q  Q
|---------------------|-------------------|
|---------------------|-------------------|
|---------------------|-------------------|
|---------------------|-3--6--5-----------|
|---------------------|----------2--1--2--|
|---------------------|-------------------|
|
| TP  TP TP TP TPTPTP   TP TP TP TP TP TP
| Q   Q  Q  Q  E E Q    Q  Q  Q  Q  Q  Q
|---------------------|-------------------|
|---------------------|-------------------|
|---------------------|-------------------|
|-3---5--6--3--6-5-6--|-3--6--5-----------|
|---------------------|----------2--1--2--|
|---------------------|-------------------|


 6/4
  TP TP TP TP TPTPTP   TP TP TP TP TP TP
  Q  Q  Q  Q  E E Q    Q  Q  Q  Q  Q  Q
|--------------------|-------------------|
|--------------------|-------------------|
|--------------------|-------------------|
|-3--5--6--3--6-5-6--|-3--6--5-----------|
|--------------------|----------2--1--2--|
|--------------------|-------------------|
|
| TP TP TP TP TPTPTP   TP TP TP TP TP TP
| Q  Q  Q  Q  E E Q    Q  Q  Q  Q  Q  Q
|--------------------|-------------------|
|--------------------|-------------------|
|--------------------|-------------------|
|-3--5--6--3--6-5-6--|-3--6--5-----------|
|--------------------|----------2--1--2--|
|--------------------|-------------------|


  TP  TP TP TP  TPTPTP   TP  TP TP TP TP TP
  Q   Q  Q  Q   E E Q    Q   Q  Q  Q  Q  Q
|----------------------|--------------------|
|----------------------|--------------------|
|----------------------|--------------------|
|-3---5--6--3---6-5-6--|-3---6--5-----------|
|----------------------|-----------2--1--2--|
|----------------------|--------------------|
|
| TP        TP           TP        TP TP TP
| H.        H.           H.        Q  Q  Q
|----------------------|--------------------|
|----------------------|--------------------|
|----------------------|--------------------|
|-----------2----------|--------------------|
|----------------------|-3---------2--1--2--|
|-1--------------------|--------------------|


    TP TP TP TP TPTPTP   TP TP TP TP TP TP
    Q  Q  Q  Q  E E Q    Q  Q  Q  Q  Q  Q
||---------------------|--------------------||
||o--------------------|-------------------o||
||---------------------|--------------------||
||--3--5--6--3--6-5-6--|-3--6--5------------||
||o--------------------|----------2--1--2--o||
||---------------------|--------------------||
|
|   TP TP TP TP TPTPTP   TP TP TP TP TP TP
|   Q  Q  Q  Q  E E Q    Q  Q  Q  Q  Q  Q
||---------------------|--------------------||
||o--------------------|-------------------o||
||--5--7--8--5--8-7-8--|-5--8--7------------||
||---------------------|----------4--3--4---||
||o--------------------|-------------------o||
||---------------------|--------------------||


  TP  TP TP TP  TPTPTP   TP  TP TP TP TP TP
  Q   Q  Q  Q   E E Q    Q   Q  Q  Q  Q  Q
|----------------------|--------------------|
|----------------------|--------------------|
|----------------------|--------------------|
|-3---5--6--3---6-5-6--|-3---6--5-----------|
|----------------------|-----------2--1--2--|
|----------------------|--------------------|
|
| TP        TP           TP        TP TP TP
| H.        H.           H.        Q  Q  Q
|----------------------|--------------------|
|----------------------|--------------------|
|----------------------|--------------------|
|-----------2----------|--------------------|
|----------------------|-3---------2--1--2--|
|-1--------------------|--------------------|


   4/4
    Gtrs I, II
                        TPTP                              TPTP   TP
    E E  E E E  E E E   E H..         E E  E E E  E E E   E H    Q.
||--------------------|-------------|-------------------|---------------||
||o-------------------|-------------|-------------------|--------------o||
||--------------------|-------------|-------------------|---------------||
||------10-----10-----|-------------|-----10-----10-----|---------------||
||o-7-7----7-7----7-7-|-8-5---------|-7-7----7-7----7-7-|-8------------o||
||--------------------|-------------|-------------------|---6----3------||


    Gtr I
    TP   TP TP   TP            TP   TP TP   TP   TP
    H    Q  Q    W             H    Q  Q    H    H
||-------------|-------------|------------|--------------||
||o------------|-------------|------------|-------------o||
||-------------|-------------|------------|--------------||
||-------------|-3-----------|------------|-5----3-------||
||o---------5--|-------------|---------5--|-------------o||
||--0----3-----|-------------|-0----3-----|--------------||
|
|   Gtr II
|   TP   TP TP   TP            TP   TP TP   TP
|                                                |3|
|   H    Q  Q    H    Q   Q    H    Q  Q    H    Q E Q
||-------------|-------------|------------|--------------||
||o------------|-------------|------------|-------------o||
||-------------|-------------|------------|-7----5-7-9---||
||-------------|-7----9--10--|------------|--------------||
||o---------5--|-------------|---------5--|-------------o||
||--0----3-----|-------------|-0----3-----|--------------||


  B5         C5            D5         Eb5
  W          W             W          W
|----------|-------------|----------|--------------|
|----------|-------------|----------|--------------|
|----------|-------------|----------|--------------|
|----------|-------------|----------|--------------|
|-2--------|-3-----------|-5--------|-6------------|
|-0--------|-1-----------|-3--------|-4------------|
|
| TP         TP TP TP TP   TP         TP TP TP TP
| W          Q  Q  Q  Q    W          Q  Q  Q  Q
|----------|-------------|----------|--------------|
|----------|-------------|----------|--------------|
|----------|-------------|----------|--------------|
|----------|----3--5--6--|----------|----2--3--5---|
|----------|-------------|----------|--------------|
|-0--------|-1-----------|-3--------|-4------------|


  B5         C5            D5         Eb5
  W          W             W          W
|----------|-------------|----------|--------------|
|----------|-------------|----------|--------------|
|----------|-------------|----------|--------------|
|----------|-------------|----------|--------------|
|-2--------|-3-----------|-5--------|-6------------|
|-0--------|-1-----------|-3--------|-4------------|
|
| TP         TP TP TP TP   TP         TP TP TP TP
| W          Q  Q  Q  Q    W          Q  Q  Q  Q
|----------|-------------|----------|--------------|
|----------|-------------|----------|--------------|
|----------|-------------|----------|--------------|
|----------|----3--5--6--|----------|----2--3--5---|
|----------|-------------|----------|--------------|
|-0--------|-1-----------|-3--------|-0------------|


  N.C.
  Gtr I
  PM--------------------|   TP TP TP   PM----------------------|  TP TP TP
  |3| |-3-| |3| |-3-|                  |3| |-3-| |3| |-3-------|
  Q E E E E Q E E E E    Q  Q  Q  Q    Q E E E E Q E E E E   Q  Q  Q  Q
|---------------------|--------------|---------------------|---------------|
|---------------------|--------------|---------------------|---------------|
|---------------------|--------------|---------------------|---------------|
|---------------------|-----3--5--6--|---------------------|----2--3--5----|
|---------------------|--------------|---------------------|---------------|
|-0-0-0-0-0-0-0-0-0-0-|--1-----------|-3-3-3-3-3-3-3-3-3-3-|-4-------------|
|
| Gtr II
| TP                     TP TP TP TP   TP                    TP TP TP TP
| W                      Q  Q  Q  Q    W                     Q  Q  Q  Q
|---------------------|--------------|---------------------|---------------|
|---------------------|--------------|---------------------|---------------|
|---------------------|--------------|---------------------|---------------|
|---------------------|-----3--5--6--|---------------------|----2--3--5----|
|---------------------|--------------|---------------------|---------------|
|-0-------------------|--1-----------|-3-------------------|-4-------------|
|
| Gtr III
| W                      W             W                     W
|---------------------|--------------|---------------------|---------------|
|---------------------|--------------|-8-------------------|-9-------------|
|-9-------------------|-10-----------|---------------------|---------------|
|---------------------|--------------|---------------------|---------------|
|---------------------|--------------|---------------------|---------------|
|---------------------|--------------|---------------------|---------------|


  PM--------------------|   TP TP TP   PM----------------------|    TP TP TP
  |3| |-3-| |3| |-3-|                  |3| |-3-| |3| |-3-------|
  Q E E E E Q E E E E    Q  Q  Q  Q    Q E E E E Q E E E E     Q  Q  Q  Q
|---------------------|--------------|---------------------|-----------------|
|---------------------|--------------|---------------------|-----------------|
|---------------------|--------------|---------------------|-----------------|
|---------------------|-----3--5--6--|---------------------|------2--3--5----|
|---------------------|--------------|---------------------|-----------------|
|-0-0-0-0-0-0-0-0-0-0-|--1-----------|-3-3-3-3-3-3-3-3-3-3-|---0-------------|
|
| TP                     TP TP TP TP   TP                      TP TP TP TP
| W                      Q  Q  Q  Q    W                       Q  Q  Q  Q
|---------------------|--------------|---------------------|-----------------|
|---------------------|--------------|---------------------|-----------------|
|---------------------|--------------|---------------------|-----------------|
|---------------------|-----3--5--6--|---------------------|------2--3--5----|
|---------------------|--------------|---------------------|-----------------|
|-0-------------------|--1-----------|-3-------------------|---0-------------|
|
| W                      W             W                       W
|---------------------|--------------|---------------------|-----------------|
|-8-------------------|-/9-----------|-8-------------------|-/13-------------|
|---------------------|--------------|---------------------|-----------------|
|---------------------|--------------|---------------------|-----------------|
|---------------------|--------------|---------------------|-----------------|
|---------------------|--------------|---------------------|-----------------|


    TP    TP TP     TP               TP    TP TP     TP    TP
    H     Q  Q      W                H     Q  Q      H     H
|---------------|----------------|---------------|-----------------|
|---------------|----------------|---------------|-----------------|
|---------------|----------------|---------------|-----------------|
|---------------|---3------------|---------------|---5-----3-------|
|------------5--|----------------|------------5--|-----------------|
|---0-----3-----|----------------|---0-----3-----|-----------------|
|
|   TP    TP TP     TP               TP    TP TP     TP
|                                                          |3|
|   H     Q  Q      H     Q   Q      H     Q  Q      H     Q E Q
|---------------|----------------|---------------|-----------------|
|---------------|----------------|---------------|-----------------|
|---------------|----------------|---------------|---7-----5-7-9---|
|---------------|---7-----9--10--|---------------|-----------------|
|------------5--|----------------|------------5--|-----------------|
|---0-----3-----|----------------|---0-----3-----|-----------------|
|
|  +W              +W               +W              +W
|---------------|----------------|---------------|-----------------|
|-(13)----------|-(13)-----------|-(13)----------|-(13)------------|
|---------------|----------------|---------------|-----------------|
|---------------|----------------|---------------|-----------------|
|---------------|----------------|---------------|-----------------|
|---------------|----------------|---------------|-----------------|


  Gtr I
  TP   TP TP   TP            TP   TP TP   TP   TP
  H    Q  Q    W             H    Q  Q    H    H
|------------|-------------|------------|--------------|
|------------|-------------|------------|--------------|
|------------|-------------|------------|--------------|
|------------|-3-----------|------------|-5----3-------|
|---------5--|-------------|---------5--|--------------|
|-0----3-----|-------------|-0----3-----|--------------|
|
| Gtr II
| TP   TP TP   TP            TP   TP TP   TP
|                                              |3|
| H    Q  Q    H    Q   Q    H    Q  Q    H    Q E Q
|------------|-------------|------------|--------------|
|------------|-------------|------------|--------------|
|------------|-------------|------------|-7----5-7-9---|
|------------|-7----9--10--|------------|--------------|
|---------5--|-------------|---------5--|--------------|
|-0----3-----|-------------|-0----3-----|--------------|


    TP   TP     TP   TP     TP   TP     TP TPTPTP
    H    H      H    H      H    H      Q  E E H     3x
||------------|-----------|-----------|--------------||
||o-----------|-----------|-----------|-------------o||
||-------5----|------6----|------5----|--------4-----||
||--2---------|-3---------|-2---------|-3--5-6-------||
||o-----------|-----------|-----------|-------------o||
||------------|-----------|-----------|--------------||
|
|   TP   TP     TP   TP     TP   TP     TP
|   H    H      H    H      H    H      W            3x
||------------|-----------|-----------|--------------||
||o-----------|-----------|-----------|-------------o||
||--4---------|-----------|-----------|--------------||
||-------5----|-6----3----|-6----2----|-3------------||
||o-----------|-----------|-----------|-------------o||
||------------|-----------|-----------|--------------||


  Q=165
  TP TP TP TP    TP  TP TP      TP TP TP TP     TP  TP TP
  Q  Q  Q  Q     Q   Q  H       Q  Q  Q  Q      Q   Q  H
|-------------|--------------|--------------|---------------|
|-------------|--------------|--------------|---------------|
|-------------|--------------|--------------|---------------|
|-4--5--4--5--|--4---5--7----|--4--5--4--5--|---4---5--7----|
|-------------|--------------|--------------|---------------|
|-------------|--------------|--------------|---------------|
|
| TP             TP             TP              TP
| W             +W              W              +W
|-------------|--------------|--------------|---------------|
|-------------|--------------|--------------|---------------|
|-------------|--------------|--------------|---------------|
|-9-----------|-(9)----------|-12-----------|-(12)----------|
|-------------|--------------|--------------|---------------|
|-------------|--------------|--------------|---------------|


  Gtr IV
  W              W              W               H.         Q
|-------------|--------------|--------------|------------------|
|-------------|--------------|--------------|------------------|
|-------------|--------------|--------------|-------------12---|
|-------------|--------------|--------------|------------------|
|-------------|--------------|--------------|------------------|
|-------------|--------------|--------------|------------------|
|
| Gtr I
| TP TP TP TP    TP  TP TP      TP TP TP TP     TP  TP TP
| Q  Q  Q  Q     Q   Q  H       Q  Q  Q  Q      Q   Q  H
|-------------|--------------|--------------|------------------|
|-------------|--------------|--------------|------------------|
|-------------|--------------|--------------|------------------|
|-4--5--4--5--|--4---5--7----|--4--5--4--5--|---4---5--7-------|
|-------------|--------------|--------------|------------------|
|-------------|--------------|--------------|------------------|
|
| Gtr II
| TP             TP             TP              TP
| W             +W              W              +W
|-------------|--------------|--------------|------------------|
|-------------|--------------|--------------|------------------|
|-9-----------|-(9)----------|--------------|------------------|
|-------------|--------------|-10-----------|-(10)-------------|
|-------------|--------------|--------------|------------------|
|-------------|--------------|--------------|------------------|


   |--3--|  |--3--|  |--3--|  |--3--|    |--3---|  |--3--|  |--3--|  |3-|
   E  E  E  E  E  E  E  E  E  E  E  E    E   E  E  E  E  E  E  E  E  E  Q
|-------------------------------------|-----------------------------19-20-|
|----------------------12----12-13-12-|-13--15-13-15-17-15-19-20-19-------|
|-11-12-11-12-14-12-14----14----------|-----------------------------------|
|-------------------------------------|-----------------------------------|
|-------------------------------------|-----------------------------------|
|-------------------------------------|-----------------------------------|
|
|  TP       TP       TP       TP         TP        TP       TP
|  Q        Q        Q        Q          Q         Q        H
|-------------------------------------|-----------------------------------|
|-------------------------------------|-----------------------------------|
|-------------------------------------|-----------------------------------|
|--4--------5--------4--------5-------|--4---------5--------7-------------|
|-------------------------------------|-----------------------------------|
|-------------------------------------|-----------------------------------|
|
|  TP                                    TP
|  W                                    +W
|-------------------------------------|-----------------------------------|
|-------------------------------------|-----------------------------------|
|-------------------------------------|-----------------------------------|
|-------------------------------------|-----------------------------------|
|--7----------------------------------|-(7)-------------------------------|
|-------------------------------------|-----------------------------------|


         |--3---|                          |--3--|
    Q   +Q   S  S  H        E  Q.      Q   E  E  E    Q   Q   Q   Q
|--20--(20)-19h20p19-----|-20-22------20--19h20p19-|-17--------------|
|------------------------|-------------------------|-----20--19--17--|
|------------------------|-------------------------|-----------------|
|------------------------|-------------------------|-----------------|
|------------------------|-------------------------|-----------------|
|------------------------|-------------------------|-----------------|
|
|   TP   TP        TP TP    TP    TP   TP             TP  TP  TP  TP
|   Q    Q         Q  Q     Q     Q    H              Q   Q   Q   Q
|------------------------|-------------------------|-----------------|
|------------------------|-------------------------|-----------------|
|------------------------|-------------------------|-----------------|
|---4----5---------4--5--|--4-----5----7-----------|--4---5---4---5--|
|------------------------|-------------------------|-----------------|
|------------------------|-------------------------|-----------------|
|
|   ~~~~~~~~~~~~~~~~~          ~~~~~~~~~~             TP
|   H              H        E  Q.      H              W
|------------------------|-------------------------|-----------------|
|------------------------|-------------------------|-----------------|
|------------------------|-----------/12-----------|-----------------|
|------------------------|--9-10-------------------|--7--------------|
|-/10-------------10-----|-------------------------|-----------------|
|------------------------|-------------------------|-----------------|


   Gtr IV
   Q    Q   Q   Q     H      H        Q.     E  H       Q   Q   Q   Q
|------------------|---------------|-----------------|------------------|
|-19---20--19--17--|---------------|-----------------|------------------|
|------------------|-19-----17-----|-16-----17-16----|------------------|
|------------------|---------------|-----------------|-12--14--12--14---|
|------------------|---------------|-----------------|------------------|
|------------------|---------------|-----------------|------------------|
|
|  Gtr I
|  TP   TP  TP        TP TP  TP TP    TP  TP    TP      TP  TP  TP  TP
|  Q    Q   H         Q  Q   Q  Q     Q   Q     H       Q   Q   Q   Q
|------------------|---------------|-----------------|------------------|
|------------------|---------------|-----------------|------------------|
|------------------|---------------|-----------------|------------------|
|--4----5---7------|--4--5---4--5--|--4---5-----7----|--4---5---4---5---|
|------------------|---------------|-----------------|------------------|
|------------------|---------------|-----------------|------------------|
|
|  Gtr II
|  TP                 TP              TP                TP
| +W                  W              +W                 W
|------------------|---------------|-----------------|------------------|
|------------------|---------------|-----------------|------------------|
|------------------|---------------|-----------------|------------------|
|-(7)--------------|---------------|-----------------|--9---------------|
|------------------|--8------------|-(8)-------------|------------------|
|------------------|---------------|-----------------|------------------|
|
|  Gtr III
|                                                       TP  TP  TP  TP
|  W                  W               W                 Q   Q   Q   Q
|------------------|---------------|-----------------|------------------|
|------------------|---------------|-----------------|------------------|
|------------------|---------------|-----------------|--7---9---7---9---|
|------------------|---------------|-----------------|------------------|
|------------------|---------------|-----------------|------------------|
|------------------|---------------|-----------------|------------------|


   Q    Q   H       Q   Q   Q   Q      Q    Q   H       Q   Q   Q   Q
|----------------|-----------------|-----------------|------------------|
|----------------|-----------------|-----------------|------------------|
|----------14----|-----------------|-----------14----|-17--16--14--16---|
|-12---14--------|-12--14--12--14--|--12---14--------|------------------|
|----------------|-----------------|-----------------|------------------|
|----------------|-----------------|-----------------|------------------|
|
|  TP   TP  TP      TP  TP  TP  TP     TP   TP  TP      TP  TP  TP  TP
|  Q    Q   H       Q   Q   Q   Q      Q    Q   H       Q   Q   Q   Q
|----------------|-----------------|-----------------|------------------|
|----------------|-----------------|-----------------|------------------|
|----------------|-----------------|-----------------|------------------|
|--4----5---7----|--4---5---4---5--|---4----5---7----|--4---5---4---5---|
|----------------|-----------------|-----------------|------------------|
|----------------|-----------------|-----------------|------------------|
|
|  TP               TP                 TP               TP
| +W                W                 +W                W
|----------------|-----------------|-----------------|------------------|
|----------------|-----------------|-----------------|------------------|
|----------------|-----------------|-----------------|--9---------------|
|-(9)------------|-12--------------|-(12)------------|------------------|
|----------------|-----------------|-----------------|------------------|
|----------------|-----------------|-----------------|------------------|
|
|  TP   TP  TP      TP  TP  TP  TP     TP   TP  TP      TP  TP  TP  TP
|  Q    Q   H       Q   Q   Q   Q      Q    Q   H       Q   Q   Q   Q
|----------------|-----------------|-----------------|------------------|
|-----------10---|-----------------|------------10---|------------------|
|--7----9--------|--7---9---7---9--|---7----9--------|--7---9---7---9---|
|----------------|-----------------|-----------------|------------------|
|----------------|-----------------|-----------------|------------------|
|----------------|-----------------|-----------------|------------------|


   Q    Q   H       Q   Q   Q   Q      Q    Q   H       H      H
|----------------|-----------------|-----------------|----------------|
|----------------|-----------------|-----------15----|-19-----17------|
|-14---12--14----|-14--16--14--16--|--14---16--------|----------------|
|----------------|-----------------|-----------------|----------------|
|----------------|-----------------|-----------------|----------------|
|----------------|-----------------|-----------------|----------------|
|
|  TP   TP  TP      TP  TP  TP  TP     TP   TP  TP      TP TP  TP TP
|  Q    Q   H       Q   Q   Q   Q      Q    Q   H       Q  Q   Q  Q
|----------------|-----------------|-----------------|----------------|
|----------------|-----------------|-----------------|----------------|
|----------------|-----------------|-----------------|----------------|
|--4----5---7----|--4---5---4---5--|---4----5---7----|--4--5---4--5---|
|----------------|-----------------|-----------------|----------------|
|----------------|-----------------|-----------------|----------------|
|
|  TP               TP                 TP               TP
| +W                W                 +W                W
|----------------|-----------------|-----------------|----------------|
|----------------|-----------------|-----------------|----------------|
|-(9)------------|-----------------|-----------------|----------------|
|----------------|-10--------------|-(10)------------|----------------|
|----------------|-----------------|-----------------|--7-------------|
|----------------|-----------------|-----------------|----------------|
|
|  TP   TP  TP      TP  TP  TP  TP     TP   TP  TP      TP TP  TP  TP
|  Q    Q   H       Q   Q   Q   Q      Q    Q   H       Q  Q   Q   Q
|----------------|-----------------|-----------------|-----------------|
|-----------10---|-----------------|------------10---|-----------------|
|--7----9--------|--7---9---7---9--|---7----9--------|--7--9---7---9---|
|----------------|-----------------|-----------------|-----------------|
|----------------|-----------------|-----------------|-----------------|
|----------------|-----------------|-----------------|-----------------|


                |--3--|      |---3---|
   Q.     S  S  Q  Q  Q      Q  Q    Q  Q.     S  S    Q      Q   H
|------------------------|--17-19---20-20-----19h20p|=19-----17--22------|
|-19-----17h19p17-19-20--|--------------------------|--------------------|
|------------------------|--------------------------|--------------------|
|------------------------|--------------------------|--------------------|
|------------------------|--------------------------|--------------------|
|------------------------|--------------------------|--------------------|
|
|  TP  TP       TP           TP   TP    TP  TP         TP     TP  TP
|  Q   Q        H            Q    Q     Q   Q          Q      Q   H
|------------------------|--------------------------|--------------------|
|------------------------|--------------------------|--------------------|
|------------------------|--------------------------|--------------------|
|--4---5--------7--------|---4----5-----4---5-------|--4------5---7------|
|------------------------|--------------------------|--------------------|
|------------------------|--------------------------|--------------------|
|
|  TP                        ~~~~~~~~~~~~~~
| +W                         H          H              E  Q.      Q   Q
|------------------------|--------------------------|--------------------|
|------------------------|--------------------------|--------------------|
|------------------------|--------------------------|-11s12--------------|
|------------------------|--------------------------|------------12------|
|-(7)--------------------|-/10---------10-----------|----------------10--|
|------------------------|--------------------------|--------------------|
|
|  TP  TP       TP           TP   TP    TP  TP         TP     TP  TP
|  Q   Q        H            Q    Q     Q   Q          Q      Q   H
|------------------------|--------------------------|--------------------|
|---------------10-------|--------------------------|-------------10-----|
|--7---9-----------------|---7----9-----7---9-------|--7------9----------|
|------------------------|--------------------------|--------------------|
|------------------------|--------------------------|--------------------|
|------------------------|--------------------------|--------------------|


   Q   Q   Q   Q     Q    Q   Q   Q     Q   Q   Q   Q     Q    Q   H
|-22--20--19--20--|-19---17----------|-----------------|----------------|
|-----------------|----------20--19--|-17--19--17--19--|-17---19--20----|
|-----------------|------------------|-----------------|----------------|
|-----------------|------------------|-----------------|----------------|
|-----------------|------------------|-----------------|----------------|
|-----------------|------------------|-----------------|----------------|
|
|  TP  TP  TP  TP    TP   TP  TP        TP  TP  TP  TP    TP   TP  TP
|  Q   Q   Q   Q     Q    Q   H         Q   Q   Q   Q     Q    Q   H
|-----------------|------------------|-----------------|----------------|
|-----------------|------------------|-----------------|----------------|
|-----------------|------------------|-----------------|----------------|
|--4---5---4---5--|--4----5---7------|--4---5---4---5--|--4----5---7----|
|-----------------|------------------|-----------------|----------------|
|-----------------|------------------|-----------------|----------------|
|
|  TP                TP                 TP                TP
|  W                +W                  W                +W
|-----------------|------------------|-----------------|----------------|
|-----------------|------------------|-----------------|----------------|
|-----------------|------------------|-----------------|----------------|
|--7--------------|-(7)--------------|-----------------|----------------|
|-----------------|------------------|--8--------------|-(8)------------|
|-----------------|------------------|-----------------|----------------|
|
|  TP  TP  TP  TP    TP   TP  TP        TP  TP  TP  TP    TP   TP  TP
|  Q   Q   Q   Q     Q    Q   H         Q   Q   Q   Q     Q    Q   H
|-----------------|------------------|-----------------|----------------|
|-----------------|-----------10-----|-----------------|-----------10---|
|--7---9---7---9--|--7----9----------|--7---9---7---9--|--7----9--------|
|-----------------|------------------|-----------------|----------------|
|-----------------|------------------|-----------------|----------------|
|-----------------|------------------|-----------------|----------------|


                              |--3--|
   Q   Q   Q   Q     Q    Q   Q  Q  Q     Q.     S  S  Q   E  E
|-----------------|-------------17-19--|-22-----20h22p20--22-20-|
|-19--20--19--20--|-19---20--20--------|------------------------|
|-----------------|--------------------|------------------------|
|-----------------|--------------------|------------------------|
|-----------------|--------------------|------------------------|
|-----------------|--------------------|------------------------|
|
|  TP  TP  TP  TP    TP   TP  TP          TP  TP       TP  TP
|  Q   Q   Q   Q     Q    Q   H           Q   Q        Q   Q
|-----------------|--------------------|------------------------|
|-----------------|--------------------|------------------------|
|-----------------|--------------------|------------------------|
|--4---5---4---5--|--4----5---7--------|--4---5--------4---5----|
|-----------------|--------------------|------------------------|
|-----------------|--------------------|------------------------|
|
|  TP                TP                   TP
|  W                +W                    W
|-----------------|--------------------|------------------------|
|-----------------|--------------------|------------------------|
|-----------------|--------------------|------------------------|
|--9--------------|-(9)----------------|-12---------------------|
|-----------------|--------------------|------------------------|
|-----------------|--------------------|------------------------|
|
|  TP  TP  TP  TP    TP   TP  TP          TP  TP       TP  TP
|  Q   Q   Q   Q     Q    Q   H           Q   Q        Q   Q
|-----------------|--------------------|------------------------|
|-----------------|-----------10-------|------------------------|
|--7---9---7---9--|--7----9------------|--7---9--------7---9----|
|-----------------|--------------------|------------------------|
|-----------------|--------------------|------------------------|
|-----------------|--------------------|------------------------|


         |--3--|  |--3--|    |--3--|  |--3--|            |--3--|  |--3--|
   H     E  E  E  E  E  E    E  E  E  E  E  E  Q   Q     Q  Q  Q  Q  Q  Q
|-22----22-20-19-17-------|---------------------------|----------------17-|
|-------------------20-19-|-17------------------------|-------17-19-20----|
|-------------------------|----19-17-16-------16--17--|-17-19-------------|
|-------------------------|-------------19-17---------|-------------------|
|-------------------------|---------------------------|-------------------|
|-------------------------|---------------------------|-------------------|
|
|   TP  TP  TP               TP      TP       TP  TP     TP  TP   TP
|   Q   Q   H
|-------------------------|---------------------------|-------------------|
|-------------------------|---------------------------|-------------------|
|-------------------------|---------------------------|-------------------|
|---4---5---7-------------|--4-------5--------4---5---|--4---5----7-------|
|-------------------------|---------------------------|-------------------|
|-------------------------|---------------------------|-------------------|
|
|   TP                       TP                          TP
|  +W                        W                          +W
|-------------------------|---------------------------|-------------------|
|-------------------------|---------------------------|-------------------|
|-------------------------|--9------------------------|-(9)---------------|
|-(12)--------------------|---------------------------|-------------------|
|-------------------------|---------------------------|-------------------|
|-------------------------|---------------------------|-------------------|
|
|   TP  TP  TP               TP      TP       TP  TP     TP  TP   TP
|   Q   Q   H
|-------------------------|---------------------------|-------------------|
|-----------10------------|---------------------------|-----------10------|
|---7---9-----------------|--7-------9--------7---9---|--7---9------------|
|-------------------------|---------------------------|-------------------|
|-------------------------|---------------------------|-------------------|
|-------------------------|---------------------------|-------------------|


                                       Begin fade out.
   Q   Q   Q   Q      Q    Q   H       E  E  E  E  Q   Q     E   E  E  E  H
|-19--20--19--20--|--19---20--22----|-22-20-19-17-19--20--|-22--20-19-17-20----|
|-----------------|-----------------|---------------------|--------------------|
|-----------------|-----------------|---------------------|--------------------|
|-----------------|-----------------|---------------------|--------------------|
|-----------------|-----------------|---------------------|--------------------|
|-----------------|-----------------|---------------------|--------------------|
|
|  TP  TP  TP  TP     TP   TP  TP      TP    TP    TP  TP    TP     TP    TP
|  Q   Q   Q   Q      Q    Q   H       Q     Q     Q   Q     Q      Q     H
|-----------------|-----------------|---------------------|--------------------|
|-----------------|-----------------|---------------------|--------------------|
|-----------------|-----------------|---------------------|--------------------|
|--4---5---4---5--|---4----5---7----|--4-----5-----4---5--|--4------5-----7----|
|-----------------|-----------------|---------------------|--------------------|
|-----------------|-----------------|---------------------|--------------------|
|
|  TP                 TP               TP                    TP
|  W                 +W                W                    +W
|-----------------|-----------------|---------------------|--------------------|
|-----------------|-----------------|---------------------|--------------------|
|-----------------|-----------------|---------------------|--------------------|
|-10--------------|-(10)------------|---------------------|--------------------|
|-----------------|-----------------|--7------------------|-(7)----------------|
|-----------------|-----------------|---------------------|--------------------|
|
|  TP  TP  TP  TP     TP   TP  TP      TP    TP    TP  TP    TP     TP    TP
|  Q   Q   Q   Q      Q    Q   H       Q     Q     Q   Q     Q      Q     H
|-----------------|-----------------|---------------------|--------------------|
|-----------------|------------10---|---------------------|---------------10---|
|--7---9---7---9--|---7----9--------|--7-----9-----7---9--|--7------9----------|
|-----------------|-----------------|---------------------|--------------------|
|-----------------|-----------------|---------------------|--------------------|
|-----------------|-----------------|---------------------|--------------------|


    |---------------3----------------|     |--3--|  |--3--|
    E  E  E  E  E  E  E  E  E  E  E  E     E  E  E  E  E  E  Q   Q
|--22-20-19-17-22-20-19-17-22-20-19-17-|--22-20-19-17-22-20-19--20--|
|--------------------------------------|----------------------------|
|--------------------------------------|----------------------------|
|--------------------------------------|----------------------------|
|--------------------------------------|----------------------------|
|--------------------------------------|----------------------------|
|
|   TP       TP       TP       TP          TP       TP       TP
|   Q        Q        Q        Q           Q        Q        H
|--------------------------------------|----------------------------|
|--------------------------------------|----------------------------|
|--------------------------------------|----------------------------|
|---4--------5--------4--------5-------|---4--------5--------7------|
|--------------------------------------|----------------------------|
|--------------------------------------|----------------------------|
|
|   ~~~~~~~~~~~~~~~~~~~~~~~~~~~~~~~~~~~~~~~~~
|   H                 H                    W
|--------------------------------------|----------------------------|
|--------------------------------------|----------------------------|
|--------------------------------------|----------------------------|
|--------------------------------------|-/10------------------------|
|-/10----------------10----------------|----------------------------|
|--------------------------------------|----------------------------|
|
|   TP       TP       TP       TP          TP       TP       TP
|   Q        Q        Q        Q           Q        Q        H
|--------------------------------------|----------------------------|
|--------------------------------------|---------------------10-----|
|---7--------9--------7--------9-------|---7--------9---------------|
|--------------------------------------|----------------------------|
|--------------------------------------|----------------------------|
|--------------------------------------|----------------------------|


      |--3--|        |--3--|                             |---3---|  |---3---|
   E  S  S  S  E  E  E  E  E  Q     Q.     S  S  H       Q  Q    Q  Q  Q    Q
|-20-19h20p19-17-----------------|--------------------|-----------------------|
|----------------20-19-17--------|-19-----17h19p17----|-19-17---19-20-19---20-|
|-------------------------19-19--|--------------------|-----------------------|
|--------------------------------|--------------------|-----------------------|
|--------------------------------|--------------------|-----------------------|
|--------------------------------|--------------------|-----------------------|
|
|  TP          TP    TP       TP    TP  TP       TP      TP   TP    TP   TP
|  Q           Q     Q        Q     Q   Q        H       Q    Q     Q    Q
|--------------------------------|--------------------|-----------------------|
|--------------------------------|--------------------|-----------------------|
|--------------------------------|--------------------|-----------------------|
|--4-----------5-----4--------5--|--4---5--------7----|--4----5-----4----5----|
|--------------------------------|--------------------|-----------------------|
|--------------------------------|--------------------|-----------------------|
|
|  TP                               TP                   TP
|  W                               +W                    W
|--------------------------------|--------------------|-----------------------|
|--------------------------------|--------------------|-----------------------|
|--------------------------------|--------------------|-----------------------|
|--7-----------------------------|-(7)----------------|-----------------------|
|--------------------------------|--------------------|--8--------------------|
|--------------------------------|--------------------|-----------------------|
|
|  TP          TP    TP       TP    TP  TP       TP      TP   TP    TP   TP
|  Q           Q     Q        Q     Q   Q        H       Q    Q     Q    Q
|--------------------------------|--------------------|-----------------------|
|--------------------------------|---------------10---|-----------------------|
|--7-----------9-----7--------9--|--7---9-------------|--7----9-----7----9----|
|--------------------------------|--------------------|-----------------------|
|--------------------------------|--------------------|-----------------------|
|--------------------------------|--------------------|-----------------------|


   |---3----|
   Q   Q    Q  E  S  S  E  E    Q   Q   Q   Q     Q    Q   H
|-17-------------------------|-----------------|----------17----|
|-----20---19-20-19h20p19-17-|-19--20--19--20--|-19---20--------|
|----------------------------|-----------------|----------------|
|----------------------------|-----------------|----------------|
|----------------------------|-----------------|----------------|
|----------------------------|-----------------|----------------|
|
|  TP    TP    TP               TP  TP  TP  TP    TP   TP  TP
|  Q     Q     H                Q   Q   Q   Q     Q    Q   H
|----------------------------|-----------------|----------------|
|----------------------------|-----------------|----------------|
|----------------------------|-----------------|----------------|
|--4-----5-----7-------------|--4---5---4---5--|--4----5---7----|
|----------------------------|-----------------|----------------|
|----------------------------|-----------------|----------------|
|
|  TP                           TP                TP
| +W                            W                +W
|----------------------------|-----------------|----------------|
|----------------------------|-----------------|----------------|
|----------------------------|-----------------|----------------|
|----------------------------|--9--------------|-(9)------------|
|-(8)------------------------|-----------------|----------------|
|----------------------------|-----------------|----------------|
|
|  TP    TP    TP               TP  TP  TP  TP    TP   TP  TP
|  Q     Q     H                Q   Q   Q   Q     Q    Q   H
|----------------------------|-----------------|----------------|
|--------------10------------|-----------------|-----------10---|
|--7-----9-------------------|--7---9---7---9--|--7----9--------|
|----------------------------|-----------------|----------------|
|----------------------------|-----------------|----------------|
|----------------------------|-----------------|----------------|


   Q   Q   Q   Q      Q    Q   H       Q   Q   Q   Q     S   S  E  Q   Q   Q
|-19--20--19--20--|--19---20--22----|-22--20--19--20--|-19h=20p19-17----------|
|-----------------|-----------------|-----------------|---------------20--19--|
|-----------------|-----------------|-----------------|-----------------------|
|-----------------|-----------------|-----------------|-----------------------|
|-----------------|-----------------|-----------------|-----------------------|
|-----------------|-----------------|-----------------|-----------------------|
|
|  TP  TP  TP  TP     TP   TP  TP      TP  TP  TP  TP    TP        TP  TP
|  Q   Q   Q   Q      Q    Q   H       Q   Q   Q   Q     Q         Q   H
|-----------------|-----------------|-----------------|-----------------------|
|-----------------|-----------------|-----------------|-----------------------|
|-----------------|-----------------|-----------------|-----------------------|
|--4---5---4---5--|---4----5---7----|--4---5---4---5--|--4---------5---7------|
|-----------------|-----------------|-----------------|-----------------------|
|-----------------|-----------------|-----------------|-----------------------|
|
|  TP                 TP               TP                TP
|  W                 +W                W                +W
|-----------------|-----------------|-----------------|-----------------------|
|-----------------|-----------------|-----------------|-----------------------|
|-----------------|-----------------|--9--------------|-(9)-------------------|
|-12--------------|-(12)------------|-----------------|-----------------------|
|-----------------|-----------------|-----------------|-----------------------|
|-----------------|-----------------|-----------------|-----------------------|
|
|  TP  TP  TP  TP     TP   TP  TP      TP  TP  TP  TP    TP        TP  TP
|  Q   Q   Q   Q      Q    Q   H       Q   Q   Q   Q     Q         Q   H
|-----------------|-----------------|-----------------|-----------------------|
|-----------------|------------10---|-----------------|----------------10-----|
|--7---9---7---9--|---7----9--------|--7---9---7---9--|--7---------9----------|
|-----------------|-----------------|-----------------|-----------------------|
|-----------------|-----------------|-----------------|-----------------------|
|-----------------|-----------------|-----------------|-----------------------|


   Q   Q   Q   Q      Q    Q   H
|-----------------|-----------------*|
|-17--19--17--19--|--17---19--20----*|
|-----------------|-----------------*|
|-----------------|-----------------*|
|-----------------|-----------------*|
|-----------------|-----------------*|
|
|  TP  TP  TP  TP     TP   TP  TP
|  Q   Q   Q   Q      Q    Q   H
|-----------------|-----------------*|
|-----------------|-----------------*|
|-----------------|-----------------*|
|--4---5---4---5--|---4----5---7----*|
|-----------------|-----------------*|
|-----------------|-----------------*|
|
|  TP                 TP
|  W                 +W
|-----------------|-----------------*|
|-----------------|-----------------*|
|-----------------|-----------------*|
|-10--------------|-(10)------------*|
|-----------------|-----------------*|
|-----------------|-----------------*|
|
|  TP  TP  TP  TP     TP   TP  TP
|  Q   Q   Q   Q      Q    Q   H
|-----------------|-----------------*|
|-----------------|------------10---*|
|--7---9---7---9--|---7----9--------*|
|-----------------|-----------------*|
|-----------------|-----------------*|
|-----------------|-----------------*|


Duration Legend
---------------
W - whole; H - half; Q - quarter; E - 8th; S - 16th; T - 32nd; X - 64th; a - acciaccatura
+ - note tied to previous; . - note dotted; .. - note double dotted
Uncapitalized letters represent notes that are staccato (1/2 duration)
Irregular groupings are notated above the duration line
Duration letters will always appear directly above the note/fret number it represents the
duration for.  Duration letters with no fret number below them represent rests.  Multi-
bar rests are notated in the form Wxn, where n is the number of bars to rest for.  Low
melody durations appear below the staff

Tablature Legend
----------------
 h   - hammer-on
 p   - pull-off
 b   - bend
 pb  - pre-bend
 r   - bend release (if no number after the r, then release immediately)
 /\  - slide into or out of (from/to "nowhere")
 s   - legato slide
 S   - shift slide
  - natural harmonic
[n]  - artificial harmonic
n(n) - tapped harmonic
 ~   - vibrato
 tr  - trill
 T   - tap
 TP  - trem. picking
 PM  - palm muting
\n/  - tremolo bar dip; n = amount to dip
 \n  - tremolo bar down
 n/  - tremolo bar up
/n\  - tremolo bar inverted dip
 =   - hold bend; also acts as connecting device for hammers/pulls
 <>  - volume swell (louder/softer)
 x   - on rhythm slash represents muted slash
 o   - on rhythm slash represents single note slash

Misc Legend
-----------
 |  - bar
||  - double bar
||o - repeat start
o|| - repeat end
*|  - double bar (ending)
 :  - bar (freetime)
 $  - Segno
 &  - Coda
Tempo markers -  = BPM(8/16=s8/s16), where s8 = swing 8ths, s16 = swing 16ths


***************************************************************************************
* Generated using Power Tab Editor by Brad Larsen - http://powertab.guitarnetwork.org *
***************************************************************************************
Tap to rate this tab
 
# A B C D E F G H I J K L M N O P Q R S T U V W X Y Z