Song name
# A B C D E F G H I J K L M N O P Q R S T U V W X Y Z

Atb - The Summer tab

e----------------------------------------------|
B--10/12/10---13----13/15/13----10-10/12/10----|
G-----------9----------------------------------|
D----------------------------------------------|
A----------------------------------------------|
E----------------------------------------------|

e----------------------------------------------|
B--------------------------------12-12--13-----|
G--10/12/10----14----14/16/14------------------|
D-----------12---------------------------------|
A----------------------------------------------|
E----------------------------------------------|


Dmitry 'DimqaOo' Nesterov
e-mail: dimqaoo@gmail.com
Tap to rate this tab
# A B C D E F G H I J K L M N O P Q R S T U V W X Y Z