Song name
# A B C D E F G H I J K L M N O P Q R S T U V W X Y Z

Atomic Bitchwax - So Come On tab

Intro riffing
e------------------------------------------------------------|
B------------------------------------------------------------|
G------------------------------------------------------------|
D--------------5p4-3-----------------------------------------|
A--------------------5p4-3----------------------3h4-5--------|
E-1h2-3--1h2-3--------------1h2-3--1h2-3--3h4-5--------------|

e------------------------------------------------------------|
B------------------------------------------------------------|
G---------------------------7p5---5--------------------------|
D--------------5p4-3------------7---7s5-5p3---3--------------|
A--------------------5p4-3------------------5---5p3-5--------|
E-1h2-3--1h2-3-----------------------------------------------|

Verse riffing x4
*all palm muted
e------------------------------------------------------------|
B------------------------------------------------------------|
G------------------------------------------------------------|
D-------3p0-0--------5v--0-3h0-0-----------------------------|
A-3h5-5-------3h5-5--------------3h5-5-----------------------|
E---------------------------------------1h3-3--3h5-5---------|

Repeat Intro riffing

Repeat Verse riffing x4

Repeat Intro riffing

Chorus
e------------------------------------------------------------|
B------------------------------------------------------------|
G-7-77777-77777-77777-7777-----------------------------------|
D-7-77777-77777-77777-7777--88-8888-8888-88888-7-77-77-77-77-|
A-5-55555-55555-55555-5555--88-8888-8888-88888-7-77-77-77-77-|
E---------------------------66-6666-6666-66666-5-55-55-55-55-|

e------------------------------------------------------------|
B-8----------------------------------------------------------|
G-6--7-77777-7777--------------------------------------------|
D-7--7-77777-7777---------7-5-7------------------------------|
A-0--5-55555-5555---------7-5-7------------------------------|
E------------------6-0-6--5-3-5------------------------------|

Repeat the chorus stuff after that
Tap to rate this tab
 
# A B C D E F G H I J K L M N O P Q R S T U V W X Y Z