Atomic Bitchwax - Dont Do It tab

Dont do it.
The Atomic Bitchwax.

This song is probably on d tunning but I did it on standard anyway.

Intro, and riff played throughout the song.

e--------------------|
B--------------------|
G--------------------|
D----------------2---|
A----------2-4-5-----|
E--0-2-3-5-----------|

Verse Chords

e--2-----3-------------------|
B--2-----3-------------------|
G--2-----5-------------------|
D--4-----5-------------------|
A--4-----3-------------------|
E--2-----3-------------------|

You can figure out the strumming pattern

then

e--8------2-----------7---7---2----|
B--8------2-----------7---7---2----|
G--8------2-----and---9---7---2----|
D--10-----4-----------9---9---4----|
A--10-----4-----------7---9---4----|
E--8------2-----------7---7---2----|

Repeat and then

2st guitar

e-----------------------------------------------------------|
B-----------------------------------------------------------|
G-----------------------------------------------------------|
D-----------------------------------------------------------|  x3
A--10/12------------------------10--10/12-------------------|
E--------14/12--10/12--9--7-----------------14/12--10-------|

e-------------------------------------------------|
B-------------------------------------------------|
G-------------------------------------------------|    x3
D-------------------------------------------------|
A--7/9---------------------7--7/9-----------------|
E------10/9--8/9--8--5-------------10/9--5--------|

1st guitar

The other guitar has an octave effect or summet so its hard to figure out but I assume 
its on this scale

e--------------------------------------------|
B----15--17------------------------------19--|
G------------18--15--15/17--15---------------|
D-------------------------------17-----------|
A--------------------------------------------|
E--------------------------------------------|


Solo

e--------------------------------            e-------------|
B---14-(x12)--12-(x3)-13-(x6)----            B-------------|
G--------------------------------   x 2  x   G--11---------|
D--------------------------------            D-------------|
A--------------------------------            A-------------|
E--------------------------------            E-------------|



Comments cause anything could be perfectly wrong, especially the second verse.
Tap to rate this tab
 
# A B C D E F G H I J K L M N O P Q R S T U V W X Y Z