Atomic Bitchwax - Dont Do It tab

-----------------------------------------------------------------------------
			     DON'T DO IT - Atomic Bitchwax
-----------------------------------------------------------------------------
Tabbed by: Tim

Tuning: Standard

This is only for the first guitar (I didn't transcribe the second yet).


This is the main riff for the song:

e|------------------------------------------------------------|
B|------------------------------------------------------------|
G|--------------------7---------------------------------------|
D|---------------2-4--7----------------2-4--4-2-----------7---|
A|-------0-2-3-4---4--5--------0-2-3-4---4------4-3-2-0---7---|
E|-0-1-2-----------2-----0-1-2-----------2--------------2-5---|

Intro is the main riff 1 time. 

The verse is the main riff twice, followed by this:

e|------------------------------------------------------------|
B|------------------------------------------------------------|
G|-----------------6--5-4-2--4-5-6--9-------------------------|
D|---------------2-6--5-4-2--4-5-6--9-9-4---------------------|
A|-------0-2-3-4---4--3-2-0--2-3-4--7-9-4---------------------|
E|-0-1-2------------------------------7-2---------------------|

It goes intro, two verses, then the bridge:

Bridge

e|------------------------------------------------------|
B|------------------------------------------------------|
G|------------------------------------------------------|
D|-5-7-------------5-7-------------5-7-------------7----|
A|-----5-7-3-5---------5-7-3-5-3-------5-7-3h5p3---7----|
E|-------------3-5---------------5---------------5-5----|


e|------------------------------------------------------|
B|------------------------------------------------------|
G|------------------------------------------------------|
D|-5-7-------------5-7-------------5-7------------------|
A|-----5-7-3-5---------5-7-3-5-3--------5-7-------------|
E|-------------3-5---------------5---------5------------|

Then do this 6 times...hitting the chords only on the 6th time

e|-------------------|-----------------|
B|-------------------|-----------------|
G|-------------------|-----------------|
D|---2-4-------------|--44444444-------|
A|-------2-4-0-2-----|--44444444-------|
E|-2-------------0-2-|--22222222-------|

Then do the main riff once, followed by a verse. Repeat this at the very end:

e|-----------|
B|-----------|
G|-9---------|
D|-9-9-4-----|
A|-7-9-4-----|
E|---7-2-----|

************************************

| /   slide up
| \   slide down
| h   hammer-on
| p   pull-off
| ~   vibrato
| +   harmonic
| x   Mute note
| b   Bend
| pb  Pre-bend
| br  Bend release
| pbr Pre-bend release
| brb Bend release bend

************************************
Tap to rate this tab
 
# A B C D E F G H I J K L M N O P Q R S T U V W X Y Z