Song name
# A B C D E F G H I J K L M N O P Q R S T U V W X Y Z

Atomsko Skloniste - Pakleni Vozaci tab

Help us improve GuitareTab! Take a short survey!
Uvod:   D  C H   H A   C H

Preko strofe
-|--------------------------|
-|--------------------------|
-|--------------------------|
-|-----------4--------------|
-|--4-5--4-5---5-4-5--------|
-|--------------------------|

Prvi put vidjeno, u vasem su gradu
Pakleni vozaci celicnih zivaca
Pripremite karte, zauzmite mjesta
Tu na galeriji plavog zida smrti.

Refren:
-|-------------------4-----------------------------|
-|-------------------5-----------------------------|
-|-4-2----4-x--5--7--4----4-2----4-x--5--7--5-4----|
-|-----4--4-x--5--7-----------4--4-x--5--7--5-4----|
-|--------2-x--3--5--------------2-x--3--5--3-2----|
-|-------------------------------------------------|

H              C     D   E
Ovo je vrijeme paklenih vozaca
H              C      D  C H
Ovo je vrijeme paklenih vozaca

Dva brata rodena na zidu smrti
Da ne vjerujes rodenim ocima
Kuda oni jure, dal' ih slava vuce
Ili mozda novac, titula neka.

Ovo je vrijeme paklenih vozaca
Ovo je vrijeme paklenih vozaca


Solo (preko sola sviraj figuru preko strofe)
-|-------------------------7------7---------------------7---10-7------------|
-|-----------------------7---7-------7----------------7---7-----------------|
-|---7b---b9-7-9-7----9b-------9b------9-7-6-7-----9b-----------------------|
-|-9---------------9---------------------------9----------------------------|
-|--------------------------------------------------------------------------|
-|--------------------------------------------------------------------------|


-|-------------7----7----------10------------------------10----------------|
-|--------------------10-7-10b--------10-----------7-10b-----7-------------|
-|-b9-7-9-7-9b---------------------9b---9br-7----7-----------7-9-7-9-7br---|
-|-----------------------------------------------------------------------9-|
-|-------------------------------------------------------------------------|
-|-------------------------------------------------------------------------|


-|--------10-7-----14-----------------------------------------------------|
-|---7-10----------17b--17br-15-------------------------------------------|
-|-7----------------------------16----------------------------------------|
-|------------------------------------------------------------------------|
-|------------------------------------------------------------------------|
-|------------------------------------------------------------------------|
Related for Pakleni Vozaci tab