Song name
# A B C D E F G H I J K L M N O P Q R S T U V W X Y Z

Atreyu - Bleeding Mascara tab

   Bleeding Mascara
       Atreyu
(guitar I may be done on just top string for the intro)

I use Drop C When I play this but as long as its dropped its right

 Intro
  D5        D5
 3/8       12/8
  Guitar I
   PM---------------------------------|
|-------------------------------------|
|-------------------------------------|
|-------------------------------------|
|-------------------------------------|
|~-0--0--0--0--0--0--0--0--0--0--0--0-|
|~-0--0--0--0--0--0--0--0--0--0--0--0-|


  Guitar II
|-----------13-17-13----------13-17-13-------|
|--------15----------15----15----------15----|
|-----14----------------14----------------14-|
|--------------------------------------------|
|--------------------------------------------|
|--------------------------------------------|


Guitar I
                    F5       Ab5
  PM-----------------------|
|--------------------------|
|--------------------------|
|--------------------------|
|--------------------------|
|~-0-0-0-0-0-0-3-3-3-6-6-6-|
|~-0-0-0-0-0-0-3-3-3-6-6-6-|
 

Guitar II

|-----------13-17-13-------18-17-15-17-15-13-|
|--------15----------15----------------------|
|-----14----------------14-------------------|
|--------------------------------------------|
|--------------------------------------------|
|--------------------------------------------|


G I

  G5                                    Bb5
   PM-------------------------------------------------|
|--------------------------|--------------------------||
|--------------------------|--------------------------||
|--------------------------|--------------------------||
|--------------------------|--------------------------||
|~-5-5-5-5-5-5-5-5-5-5-5-5-|--8-8-8-8-8-8-8-8-8-8-8-8-||
|~-5-5-5-5-5-5-5-5-5-5-5-5-|--8-8-8-8-8-8-8-8-8-8-8-8-||


G II

|-----------13-17-13----------13-17-13-------|---18-17-15-17------|
|--------15----------15----15----------15----|--------------------|
|-----14----------------14----------------14-|--------------------|
|--------------------------------------------|--------------------|
|--------------------------------------------|--------------------|
|--------------------------------------------|--------------------|


G I
  G5                                    Bb5
   PM------------------------------------------------|
|--------------------------|-------------------------||
|--------------------------|-------------------------||
|--------------------------|-------------------------||
|--------------------------|-------------------------||
|~-5-5-5-5-5-5-5-5-5-5-5-5-|-8-8-8-8-8-8-8-8-8-8-8-8-||
|~-5-5-5-5-5-5-5-5-5-5-5-5-|-8-8-8-8-8-8-8-8-8-8-8-8-||

G II

|-----------13-17-13----------13-17-13-------|----18-17-15-17-15-13---|
|--------15----------15----15----------15----|------------------------|
|-----14----------------14----------------14-|------------------------|
|--------------------------------------------|------------------------|
|--------------------------------------------|------------------------|
|--------------------------------------------|------------------------|

G I

 Pre-Verse
  D5                                                       F5       Ab5
|-------------------------------------|-----------------------------------|
|-------------------------------------|-----------------------------------|
|-------------------------------------|-----------------------------------|
|--0----------------------------------|------------------3--------6-------|
|--0----------------------------------|------------------3--------6-------|
|--0----------------------------------|------------------3--------6-------|



  G5                                    Bbsus2
|-------------------------------------|----------------------|
|-------------------------------------|----------------------|
|-------------------------------------|----------------------|
|--5----------------------------------|--8-------------------|
|--5----------------------------------|--8-------------------|
|--5----------------------------------|--8-------------------|


G II

|-----------13-17-13----------13-17-13-------|---18-17-15-17-15-13---|
|--------15----------15----15----------15----|-----------------------|
|-----14----------------14----------------14-|-----------------------|
|--------------------------------------------|-----------------------|
|--------------------------------------------|-----------------------|
|--------------------------------------------|-----------------------|


G I

  D5                                                       F5       Ab5
|-------------------------------------|-----------------------------------|
|-------------------------------------|-----------------------------------|
|-------------------------------------|-----------------------------------|
|--0----------------------------------|------------------3--------6-------|
|--0----------------------------------|------------------3--------6-------|
|--0----------------------------------|------------------3--------6-------|


G II

|-----------13-17-13----------13-17-13-------|-----------13-17-13----------13-17-13-------|
|--------15----------15----15----------15----|--------15----------15----15----------15----|
|-----14----------------14----------------14-|-----14----------------14----------------14-|
|--------------------------------------------|--------------------------------------------|
|--------------------------------------------|--------------------------------------------|
|--------------------------------------------|--------------------------------------------|




  G5                                                              F5
|-------------------------------------|-----------------------------------||
|-------------------------------------|-----------------------------------||
|-------------------------------------|-----------------------------------||
|--5----------------------------------|--------------------5-------3------||
|--5----------------------------------|--------------------5-------3------||
|--5----------------------------------|--------------------5-------3------||

|-18-17-15-17-15-13-15-13-12-9-10-12----|-13-12-10-12-10-8-8b10-8b10-----||
|---------------------------------------|--------------------------------||
|---------------------------------------|--------------------------------||
|---------------------------------------|--------------------------------||
|---------------------------------------|--------------------------------||
|---------------------------------------|--------------------------------||

                                                                             
   Verse
    Faster Q.=174
    $
    D5    N.C.        D5      N.C.        D5    Bb5
    Gtrs I, II
    PM--|             PM--|               PM--|
||--------------------------|------------------------|
||--------------------------|------------------------|
||--------------------------|------------------------|
||--------------------------|--------------------8---|
||~-0-0-0-------------0-0-0-|~-------------0-0-0-8---|
||~-0-0-0-8p5p0-5p3p0-0-0-0-|~-8p5p0-5p3p0-0-0-0-8---|


  D5    N.C.        D5      N.C.        D5    Eb5
  PM--|             PM--|               PM--|
|--------------------------|------------------------|
|--------------------------|------------------------|
|--------------------------|------------------------|
|--------------------------|--------------------1---|
|~-0-0-0-------------0-0-0-|~-------------0-0-0-1---|
|~-0-0-0-8p5p0-5p3p0-0-0-0-|~-8p5p0-5p3p0-0-0-0-1---|


  D5   N.C.       D5     N.C.          D5
  Gtr I
  PM-|            PM-|                 PM----------|
|----------------------|---------------------------|
|----------------------|---------------------------|
|------7--8-(8)--------|--7---8--(8)---------------|
|------x--x------------|--x---x--------------------|
|-0--0-5--6-(6)---0--0-|--5---6--(6)---0-0-0-0-0-0-|
|-0--0------------0--0-|---------------0-0-0-0-0-0-|
|
| Gtr II
| PM-|            PM-|                 PM--------|
|----------------------|---------------------------|
|----------------------|---------------------------|
|------7--8-(8)--------|-10--12-(12)---------------|
|------x--x------------|--x---x--------------------|
|-0--0-5--6-(6)---0--0-|--8--10-(10)---0-0-0-0-0-0-|
|-0--0------------0--0-|---------------0-0-0-0-0-0-|


                                                       To Coda
  Db5                                   Eb5
   PM---------------------------------------------------------|
|-------------------------------------|--------------------------||
|-------------------------------------|-------------------------o||
|-------------------------------------|--------------------------||
|-------------------------------------|--------------------------||
|-11-11-11-11-11-11-11-11-11-11-11-11-|-8-8-8-8-8-8-8-8-8-8-8-8-o||
|-11-11-11-11-11-11-11-11-11-11-11-11-|-8-8-8-8-8-8-8-8-8-8-8-8--||
|
|-------------------------------------|--------------------------||
|-------------------------------------|-------------------------o||
|-10-10-10-10-10-10-10-10-10-10-10-10-|-7-7-7-7-7-7-7-7-7-7-7-7--||
|--x--x--x--x--x--x--x--x--x--x--x--x-|-x-x-x-x-x-x-x-x-x-x-x-x--||
|--8--8--8--8--8--8--8--8--8--8--8--8-|-5-5-5-5-5-5-5-5-5-5-5-5-o||
|-------------------------------------|--------------------------||


  C5                                    A5
|-------------------------------------|-------------------------||
|-------------------------------------|-------------------------||
|-------------------------------------|-------------------------||
|-10-10-10-10-10-10-10-10-10-10-10-10-|-7-7-7-7-7-7-7-7-7-7-7-7-||
|-10-10-10-10-10-10-10-10-10-10-10-10-|-7-7-7-7-7-7-7-7-7-7-7-7-||
|-10-10-10-10-10-10-10-10-10-10-10-10-|-7-7-7-7-7-7-7-7-7-7-7-7-||
|
|-------------------------------------|-------------------------||
|-------------------------------------|-------------------------||
|-10-10-10-10-10-10-10-10-10-10-10-10-|-7-7-7-7-7-7-7-7-7-7-7-7-||
|--x--x--x--x--x--x--x--x--x--x--x--x-|-x-x-x-x-x-x-x-x-x-x-x-x-||
|--8--8--8--8--8--8--8--8--8--8--8--8-|-5-5-5-5-5-5-5-5-5-5-5-5-||
|-------------------------------------|-------------------------||


 Chorus
  $$
  G5                        Bb5
|-------------------------|-------------------------|
|-------------------------|-------------------------|
|-------------------------|-------------------------|
|-5--5-(5)--5-5--5-(5)--5-|-8--8-(8)--8-8--8-(8)--8-|
|-5--5-(5)--5-5--5-(5)--5-|-8--8-(8)--8-8--8-(8)--8-|
|-5--5-(5)--5-5--5-(5)--5-|-8--8-(8)--8-8--8-(8)--8-|
|
|-------------------------|-------------------------|
|-------------------------|-------------------------|
|-3-----------------------|-5-----------------------|
|-x-----------------------|-x-----------------------|
|-1-----------------------|-3-----------------------|
|-------------------------|-------------------------|


  D5                         F5
|--------------------------|-------------------------|
|--------------------------|-------------------------|
|--------------------------|-------------------------|
|-0--0-(0)--0--0--0-(0)--0-|-3--3-(3)--3-3--3-(3)--3-|
|-0--0-(0)--0--0--0-(0)--0-|-3--3-(3)--3-3--3-(3)--3-|
|-0--0-(0)--0--0--0-(0)--0-|-3--3-(3)--3-3--3-(3)--3-|
|
|--------------------------|-------------------------|
|--------------------------|-------------------------|
|-------------10-----------|-9-----------5-----------|
|-0------------x-----------|-x-----------x-----------|
|-0------------8-----------|-7-----------3-----------|
|-0------------------------|-------------------------|


  G5                        Bb5
|-------------------------|-------------------------|
|-------------------------|-------------------------|
|-------------------------|-------------------------|
|-5--5-(5)--5-5--5-(5)--5-|-8--8-(8)--8-8--8-(8)--8-|
|-5--5-(5)--5-5--5-(5)--5-|-8--8-(8)--8-8--8-(8)--8-|
|-5--5-(5)--5-5--5-(5)--5-|-8--8-(8)--8-8--8-(8)--8-|
|
|-------------------------|-------------------------|
|-------------------------|-------------------------|
|-3-----------------------|-7-----------------------|
|-x-----------------------|-x-----------------------|
|-1-----------------------|-5-----------------------|
|-------------------------|-------------------------|


  D5                         F5
|--------------------------|--------------------------|
|--------------------------|--------------------------|
|--------------------------|--------------------------|
|-0--0-(0)--0--0--0-(0)--0-|-3--3-(3)--3--3--3-(3)--3-|
|-0--0-(0)--0--0--0-(0)--0-|-3--3-(3)--3--3--3-(3)--3-|
|-0--0-(0)--0--0--0-(0)--0-|-3--3-(3)--3--3--3-(3)--3-|
|
|--------------------------|--------------------------|
|--------------------------|--------------------------|
|-------------10-----------|-9-----------14-----------|
|-0------------x-----------|-x------------x-----------|
|-0------------8-----------|-7-----------12-----------|
|-0------------------------|--------------------------|


  G5                         Bb5
|--------------------------|--------------------------|
|--------------------------|--------------------------|
|--------------------------|--------------------------|
|--5--5-(5)--5-5--5-(5)--5-|--8--8-(8)--8-8--8-(8)--8-|
|--5--5-(5)--5-5--5-(5)--5-|--8--8-(8)--8-8--8-(8)--8-|
|--5--5-(5)--5-5--5-(5)--5-|--8--8-(8)--8-8--8-(8)--8-|
|
|--------------------------|--------------------------|
|--------------------------|--------------------------|
|-12-----------------------|-10-----------------------|
|--x-----------------------|--x-----------------------|
|-10-----------------------|--8-----------------------|
|--------------------------|--------------------------|


  D5                         F5
|--------------------------|-------------------------|
|--------------------------|-------------------------|
|--------------------------|-------------------------|
|-0--0-(0)--0--0--0-(0)--0-|-3--3-(3)--3-3--3-(3)--3-|
|-0--0-(0)--0--0--0-(0)--0-|-3--3-(3)--3-3--3-(3)--3-|
|-0--0-(0)--0--0--0-(0)--0-|-3--3-(3)--3-3--3-(3)--3-|
|
|--------------------------|-------------------------|
|--------------------------|-------------------------|
|-------------10-----------|-9-----------5-----------|
|-0------------x-----------|-x-----------x-----------|
|-0------------8-----------|-7-----------3-----------|
|-0------------------------|-------------------------|


                                      D.S. al Coda
                                      D.S. al Coda
  G5                        Bb5
|-------------------------|-------------------------||
|-------------------------|-------------------------||
|-------------------------|-------------------------||
|-5--5-(5)--5-5--5-(5)--5-|-8-8-8-8-8-8-8-8-8-8-8-8-||
|-5--5-(5)--5-5--5-(5)--5-|-8-8-8-8-8-8-8-8-8-8-8-8-||
|-5--5-(5)--5-5--5-(5)--5-|-8-8-8-8-8-8-8-8-8-8-8-8-||
|
|-------------------------|-------------------------||
|-------------------------|-------------------------||
|-3-----------------------|-7-----------------------||
|-x-----------------------|-x-----------------------||
|-1-----------------------|-5-----------------------||
|-------------------------|-------------------------||


   Interlude
    &
    D5                           N.C.   D5N.C.
    Gtrs I, II
    PM-------------------------|        PM
||------------------------|--------------------|
||o-----------------------|--------------------|
||------------------------|--------------------|
||------------------------|------3--6-----5--3-|
||o-0--0-0-0-0-0--0-0-0-0-|-0--0-x--x---0-x--x-|
||--0--0-0-0-0-0--0-0-0-0-|-0--0-3--6---0-5--3-|


  1.
  D5                       N.C.   D5N.C.
  PM---------------------|        PM
|-------------------|---------------------||
|-------------------|--------------------o||
|-------------------|---------------------||
|-------------------|------3--6-----5--3--||
|-0--0--0--0--0--0--|-0--0-x--x---0-x--x-o||
|-0--0--0--0--0--0--|-0--0-3--6---0-5--3--||


  2.
  D5                       N.C.   D5N.C.
  Gtr I
  PM---------------------|        PM
|-------------------|----------------------------||
|-------------------|----------------------------||
|-------------------|----------------------------||
|-------------------|------3--6------5---------3-||
|-0--0--0--0--0--0--|-0--0-x--x---0--x---------x-||
|-0--0--0--0--0--0--|-0--0-3--6---0--5---------3-||
|
| Gtr II
| PM---------------------|        PM
|-------------------|---------------10b12-(10)---||
|-------------------|----------------------------||
|-------------------|----------------------------||
|-------------------|------3--6------------------||
|-0--0--0--0--0--0--|-0--0-x--x---0--------------||
|-0--0--0--0--0--0--|-0--0-3--6---0--------------||


 Guitar Solo
  D5                                 N.C.   D5N.C.
   PM------------------------------|        PM
|----------------------------|---------------------|
|----------------------------|---------------------|
|----------------------------|---------------------|
|----------------------------|-------3--6-----5--3-|
|--0------0-0-0-0-0--0-0-0-0-|--0--0-x--x---0-x--x-|
|--0------0-0-0-0-0--0-0-0-0-|--0--0-3--6---0-5--3-|
|
|                               ~~
|----------------------------|---------------------|
|-13b15======================|=13------------------|
|----------------------------|---------------------|
|----------------------------|---------------------|
|----------------------------|---------------------|
|----------------------------|---------------------|


  D5                                            N.C.   D5N.C.
   PM-----------------------------------------|        PM ~~~
|------------------------------------|-------------------------|
|------------------------------------|-------------------------|
|------------------------------------|-------------------------|
|------------------------------------|----------3--6-----------|
|--0-----0-----0-----0--0-------0----|--0-----0-x--x---0-------|
|--0-----0-----0-----0--0-------0----|--0-----0-3--6---0-[5]---|
|
|     T     T     T                     ~~~~~
|------------------------------------|-------------------------|
|-13-17p13-17p13-17p13r-13p10--------|-13b15-------------------|
|------------------------------------|-------------------------|
|------------------------------------|-------------------------|
|------------------------------------|-------------------------|
|------------------------------------|-------------------------|


  D5                                             N.C.           D5 N.C.
   PM-----------------------------------------|                  PM
|-------------------------------------|-------------------------------------|
|-------------------------------------|-------------------------------------|
|-------------------------------------|-------------------------------------|
|-------------------------------------|-----------3-----6-----------5-----3-|
|--0-----0--0--0--0--0-----0--0--0--0-|--0-----0--x-----x--------0--x-----x-|
|--0-----0--0--0--0--0-----0--0--0--0-|--0-----0--3-----6--------0--5-----3-|
|
|----------13-17-13-------------12-17-12--------|-------15-19-15-------------13-15-13---------|
|-------15----------15-------13----------13-----|----17----------17-------15----------15------|
|----14----------------14-12----------------12--|-16----------------16-14----------------14---|
|-----------------------------------------------|---------------------------------------------|
|-----------------------------------------------|---------------------------------------------|
|-----------------------------------------------|---------------------------------------------|


  D5                                      N.C.   D5N.C.
   PM-----------------------------------|        PM
|------------------------------|------------------------|
|------------------------------|------------------------|
|------------------------------|------------------------|
|------------------------------|----------3--6-----5--3-|
|--0--0-0-0-0---0------0-0-0-0-|--0-----0-x--x---0-x--x-|
|--0--0-0-0-0---0------0-0-0-0-|--0-----0-3--6---0-5--3-|

                                 
|-18b19------------------------|-18-16-14-17-16-14--------------|
|------------------------------|-------------------15-----------|
|------------------------------|--------------------------------|
|------------------------------|--------------------------------|
|------------------------------|--------------------------------|
|------------------------------|--------------------------------|


  D5                                       N.C.   D5N.C.
   PM------------------------------------|        PM ~~~
|-------------------------------|-------------------------|
|-------------------------------|-------------------------|
|-------------------------------|-------------------------|
|-------------------------------|----------3--6-----------|
|--0-----0-----0-----0---0---0--|--0-----0-x--x---0-------|
|--0-----0-----0-----0---0---0--|--0-----0-3--6---0-[5]---|


  D5                                   N.C.       D5 N.C.
   PM-------------------------------|              PM
|-----------------------------|-----------------------------|
|-----------------------------|-----------------------------|
|-----------------------------|-----------------------------|
|-----------------------------|--------3----6--------5----3-|
|--0---0-0--0-0--0---0-0--0-0-|--0---0-x----x------0-x----x-|
|--0---0-0--0-0--0---0-0--0-0-|--0---0-3----6------0-5----3-|
|
|-----12---11---17--16---15---|-14--15---14---15--16---17---|
|-11--------------------------|-----------------------------|
|-----------------------------|-----------------------------|
|-----------------------------|-----------------------------|
|-----------------------------|-----------------------------|
|-----------------------------|-----------------------------|


                                          D.S.S. al Dbl. Coda
  D5                                     N.C.              D5N.C.
   PM---------------------------------|                    PM ~~~
|-----------------------------|------------------------------------||
|-----------------------------|------------------------------------||
|-----------------------------|------------------------------------||
|-----------------------------|-----------3-----6------------------||
|--0-----0--0----0------0--0--|--0-----0--x-----x----------0-------||
|--0-----0--0----0------0--0--|--0-----0--3-----6----------0-[5]---||
|
|                ~~~~~~~                            ~~~~~~~
|-17b18--------17b18----------|
|-----------------------------|
|-----------------------------|
|-----------------------------|
|-----------------------------|
|-----------------------------|


 Outro
  
  D5                         Bb5
|--------------------------|--------------------------|
|--------------------------|--------------------------|
|--------------------------|--------------------------|
|-0--0-(0)--0--0--0-(0)--0-|-8--8-(8)--8--8--8-(8)--8-|
|-0--0-(0)--0--0--0-(0)--0-|-8--8-(8)--8--8--8-(8)--8-|
|-0--0-(0)--0--0--0-(0)--0-|-8--8-(8)--8--8--8-(8)--8-|
|
|--------------------------|--------------------------|
|--------------------------|--------------------------|
|-------------10-----------|-9-----------14-----------|
|-0------------x-----------|-x------------x-----------|
|-0------------8-----------|-7-----------12-----------|
|-0------------------------|--------------------------|


  G5                         Bb5
|--------------------------|--------------------------|
|--------------------------|--------------------------|
|--------------------------|--------------------------|
|--5--5-(5)--5-5--5-(5)--5-|--8-8-8-8-8-8-8-8-8-8-8-8-|
|--5--5-(5)--5-5--5-(5)--5-|--8-8-8-8-8-8-8-8-8-8-8-8-|
|--5--5-(5)--5-5--5-(5)--5-|--8-8-8-8-8-8-8-8-8-8-8-8-|
|
|--------------------------|--------------------------|
|--------------------------|--------------------------|
|-12-----------------------|-10-----------------------|
|--x-----------------------|--x-----------------------|
|-10-----------------------|--8-----------------------|
|--------------------------|--------------------------|


  G5                         F5      E5
|--------------------------|--------------|
|--------------------------|--------------|
|--------------------------|--------------|
|--5--5-(5)--5-5--5-(5)--5-|--3------2----|
|--5--5-(5)--5-5--5-(5)--5-|--3------2----|
|--5--5-(5)--5-5--5-(5)--5-|--3------2----|
|
|--------------------------|--------------|
|--------------------------|--------------|
|-12-----------------------|-10------9----|
|--x-----------------------|--x------x----|
|-10-----------------------|--8------7----|
|--------------------------|--------------|


  D5
|--------------|--------|
|--------------|--------|
|--------------|--------|
|-0------------|-(0)----|
|-0------------|-(0)----|
|-0------------|-(0)----|
|
|--------------|--------|
|--------------|--------|
|-7------------|-(7)----|
|-x------------|--------|
|-5------------|-(5)----|
|--------------|--------|
Tap to rate this tab
 
# A B C D E F G H I J K L M N O P Q R S T U V W X Y Z