Song name
# A B C D E F G H I J K L M N O P Q R S T U V W X Y Z

Attack Attack - Stick Stickly tab

I think I've figured out the parts that the other two tabs lack. However, I give a lot 
credit to the other two tabs for getting most of it.

Drop D down 1/2 step (C# G# C# F# A# D#)

Intro
|------------------------------------------------|
|------------------------------------------------|
|------------------------------------------------|
|------------------------------------------------|    X4
|--0-0-0--0-0-0---0--0-0---0--0-0--0-0-0--0-0-0--|
|--0-0-0--0-0-0---0--0-0---0--0-0--0-0-0--0-0-0--|

Add tremelo picking
|---------------------------------------------------|
|---------------------------------------------------|
|---------------------------------------------------|
|-----------------------------------------------7t--| X2
|--8t--------12t---10t-----7t----------7t-----------|
|----------------------------------5t-------8t------|

Pre-chorus
|---------------------------------------------|
|---------------------------------------------|
|------------------------12-12-12-12//14--14--|
|--0----------------------x--x--x--x//-x---x--|
|--0---------------------10-10-10-10//12--12--|
|--0------------------------------------------|

Chorus (I'm not too sure about this part)
|--------------------------------------------------------------------------|
|--------------------------------------------------------------------------|
|---------------------------------14-14-14-14------------------------------|
|8-8-8-8-8-8-8-10-10-10-10-10-10---x--x--x--x-8-8-8-8-8-8-10-10-10-10-10-10|
|8-8-8-8-8-8-8-10-10-10-10-10-10--12-12-12-12-8-8-8-8-8-8-10-10-10-10-10-10|
|8-8-8-8-8-8-8-10-10-10-10-10-10--------------8-8-8-8-8-8-10-10-10-10-10-10|

Pre-Verse                  Verse
|-----------------------|  |---------------------------------------------|
|--5~------5~------5~---|  |--5~------5~------5-5-5-5--5~------5~-----5~-|
|--8~------8~------8~---|  |--8~------8~------8-8-8-8--8~------8~-----8~-|
|-----------------------|  |---------------------------------------------|X2
|-----0--0----0--0------|  |-----0--0----0--0-------------0--0---0--0----|
|-----0--0----0--0------|  |-----0--0----0--0-------------0--0---0--0----|


|------------------|
|------------------|
|------------------|
|-10--------12-----|
|-8---X16---10--X9-|
|-8---------10-----|

Breakdown
|--------------------------------------|
|--------------------------------------|
|--------------------------------------|
|--------------------------------------|
|1-1-1--1--1-1-1--1----1-1-1-1-1-1-1-1-|
|0-0-0--0--0-0-0--0----0-0-0-0-0-0-0-0-|

|-----------------------------------|
|-----------------------------------|
|-----------------------------------|
|-----------------------------------|
|1-1-1--1--1-1-1--1--1--1-1-1-1--3*-|
|0-0-0--0--0-0-0--0--0--0-0-0-0-----|

|-----------------------------------------------------------------|
|-----------------------------------------------------------------|
|-----------------------------------------------------------------|
|-----------------------------------------------------------------| X2
|-0-0-0-0---0-0-0-0---0-0-0-0---0-0-0-0---0-0-8h12-8h12-8h12-8h12-|
|-0-0-0-0---0-0-0-0---0-0-0-0---0-0-0-0---0-0---------------------|

Pre-Chorus
|-------------------------------|
|-------------------------------|
|-------------------------------|
|-8------10------0------10------| X2
|-8--X8--10--X8--0--X8--10--X8--|
|-8------10------0------10------|

(Chorus)

Breakdown 2
|--------------------------------------|
|--------------------------------------|
|--------------------------------------|
|--------------------------------------|  X3
|-0-0-0--0-0--0-0-0-0-0--0-0-0-0-0--0--|
|-0-0-0--0-0--0-0-0-0-0--0-0-0-0-0--0--|

(This part is weird. I'm still not too sure about this)
|---------------------------------------------|
|---------------------------------------------|
|---------------------------------------------|
|---------------------------------------------| X2
|----7h8-----7h8-----7h8------------5h6---5h6-|
|-7h8-----7h8-----7h8---7h8p7h8--5h6---5h6----|

|--------------------------|
|--------------------------|
|--------------------------|
|-5--5--5--5-5-5-5-5-5-5-5-|
|-3--3--3--3-3-3-3-3-3-3-3-|
|--------------------------|

|------------------------------------------------------|
|------------------------------------------------------|
|------------------------------------------------------|
|-7--7--7--7--3--3--3--3--5--5--5--5--5----------------|
|-5--5--5--5--1--1--1--1--3--3--3--3--5--5--5--5--5--5-|
|----------------------------------------5--5--5--5--5-|


|------------------------------------------------------|
|--------------------------------------5~--------------|
|--------------------------------------8~--------------|
|--------------------------------------0---------------|
|-1-1-1--1--1-1-1--1--1-1-1-1-1-1-1-1--0---------------|
|-0-0-0--0--0-0-0--0--0-0-0-0-0-0-0-0--0---------------|
Tap to rate this tab
# A B C D E F G H I J K L M N O P Q R S T U V W X Y Z