Song name
# A B C D E F G H I J K L M N O P Q R S T U V W X Y Z

Attaque 77 - Chance tab

Intro: Piano, E


Verso:

E               Bm
Dia a dia aprendiendo a ser...
F#m                 A
Miro hacia atras y todo el camino hecho...
E                  Bm
Lo que pudo ser y lo que fue...
F#m            A
Mi oportunidad de comenzar de nuevo...
F#m G#m C#m                  A
...Y lo demas... francamente no importa...

E                      Bm
Quien fui todo este tiempo no se...
F#m                A
Quien soy o sere, habre cumplido un sueño...
E                Bm
Intentando la felicidad....
F#m                A
A prueba y error, la vida es un momento...
F#m G#m  C#m                 A
...Y lo demas... francamente no importa...


Estribillo:

F#m
Te miro fijo y me sonreis...
D
No pierdo un dia lejos de ti...
A             E
Mi chance es hoy...

F#m
Miro tus ojos y me veo ahi...
D
Aprovechando cada ocasion...
A             E
Mi chance es hoy...


Verso:

E                      Bm
Tantas cosas que habre hecho bien...
F#m                 A
Tantas que hice mal y que ni ahi me entero...
E                   Bm
Cuanto que desperdicie sin ver...
F#m                A
Que estuviste ahi conmigo todo el tiempo...
F#m     G#m   C#m                A
...Y hoy lo demas francamente no importa...

Estribillo:
F#m
Te miro fijo y me sonreis...
D
No pierdo un dia lejos de ti...
A             E
Mi chance es hoy...

F#m
Miro tus ojos y me veo ahi...
D
Aprovechando cada ocasion...
A             E
Mi chance es hoy...


SOLO:


e---------------------------------------------------------------------------|
B--------------------------------------------------------------------7--7~--|
G--/9--9--11--11--/13--13--11--9~---/7--7--9--9--/11--11--9--7~--6~--6--6~~-|
D---------------------------------------------------------------------------|
A---------------------------------------------------------------------------|
E---------------------------------------------------------------------------|

e--------------------------|
B--------------------------|
G--9--9--/11--6~-----------|
D-----------------9--7--9~-|
A--------------------------|
E--------------------------|


F#m     G#m   C#m                A
...Y hoy lo demas francamente no importa...


F#m
Te miro fijo y me sonreis...
D
No pierdo un dia lejos de ti...
A             E
Mi chance es hoy...

F#m
Miro tus ojos y me veo ahi...
D
Aprovechando cada ocasion...
A             E
Mi chance es hoy...

F#m
Te miro fijo y me sonreis...
D
No pierdo un dia lejos de ti...
A             E
Mi chance es hoy...

F#m
Miro tus ojos y me veo ahi...
D
Aprovechando cada ocasion...
A             E
Mi chance es hoy...

F#m
Te miro fijo y me sonreis...
D
No pierdo un dia lejos de ti...
A             E
Mi chance es hoy...

F#m
Miro tus ojos y me veo ahi...
D
Aprovechando cada ocasion...
A             E
Mi chance es hoy...


e---------------------------------------------------------------------------|
B--------------------------------------------------------------------7--7~--|
G--/9--9--11--11--/13--13--11--9~---/7--7--9--9--/11--11--9--7~--6~--6--6~~-|
D---------------------------------------------------------------------------|
A---------------------------------------------------------------------------|
E---------------------------------------------------------------------------|

e---------------------------|
B-----------------15--------|
G--14--14--16/18------14~~~-|
D---------------------------|
A---------------------------|
E---------------------------|
Tap to rate this tab
 
# A B C D E F G H I J K L M N O P Q R S T U V W X Y Z