Song name
# A B C D E F G H I J K L M N O P Q R S T U V W X Y Z

Attaque 77 - Arrancacorazones tab

Cancin: Arrancacorazones
Intrprete: Attaque 77
CD: Antihumano (2003)

INTRO: G
G            D  Em            C    
Evitar resistir tu hechizo de suave adiccin
Am        C          Am            D
como si fuera fcil dominar mi sentir
G               D  Em                    C
y saber que te vas, y saber que la abstinencia me puede
Am        C          Am        PUENTE 1         
todo se vuelve oscuro y solo puedo decir..


g5                 e5                B5
Mas, dame un poco mas, quiero intoxicarme en vos
D5          C5    Bb5
arrancacorazones.
 g5              e5               B5
Hoy antes del final quiero intoxicarme en vos
D5      C5         D5
arrancacorazones, dame tu droga.

G

G                 D  Em                C
Y pensar que una vez, me dijiste terminemos todo
Am         C          Am          D
mi vida es un desastre y no te quiero en el
         G         D Em                     C
pero al fin te segu por un laberinto de espejos rotos
Am      C             Am         PUENTE 1 
y aparec en un barrio del que puedo salir...

g5                 e5                B5
Mas, dame un poco mas, quiero intoxicarme en vos
D5          C5    Bb5
arrancacorazones.
 g5              e5               B5
Hoy antes del final quiero intoxicarme en vos
D5      C5         D5
arrancacorazones, dame tu droga.

PUENTE 2

SOLO 1

g5                 e5                B5
Mas, dame un poco mas, quiero intoxicarme en vos
D5          C5    Bb5
arrancacorazones.
 g5              e5               B5
Hoy antes del final quiero intoxicarme en vos
D5      C5         D5
arrancacorazones, dame tu droga.

g5                 e5                B5
Mas, dame un poco mas, quiero intoxicarme en vos
D5          C5    Bb5
arrancacorazones.
 g5              e5               B5
Hoy antes del final quiero intoxicarme en vos
D5      C5         D5
arrancacorazones, dame tu droga.

g5                 e5                B5
Mas, dame un poco mas, quiero intoxicarme en vos
D5          ARREGLO
arrancacorazones.
 g5              e5               B5
Hoy antes del final quiero intoxicarme en vos
D5      ARREGLO
arrancacorazones, dame tu droga.

PUENTE 1:  
   D5          C5             B5          A5           
E|-------------------------|--------------------------|
B|-------------------------|--------------------------|
G|-7--7--7--7--5--5--5--5--|--4--4--4--4--------------|
D|-7--7--7--7--5--5--5--5--|--4--4--4--4--7--7--7--7--|
A|-5--5--5--5--3--3--3--3--|--2--2--2--2--7--7--7--7--|
e|-------------------------|--------------5--5--5--5--|

PUENTE 2:
    G5     C5     D5    
E|---------------------|
B|--8------------------|
G|--7------5------7----|
D|--5------5------7----|
A|---------3------5----|
e|---------------------|

    A5     C5     E5                       
E|---------------------|
B|----------------5----|
G|---------5------4----|
D|--7------5------2----|
A|--7------3-----------|
e|--5------------------|

SOLO 1:
   C5                   D5
E|--------------------|----------------------|
B|--------------------|----------------------|
G|-9------------12----|--12h-11--------------|
D|--------------------|----------------------|
A|--------------------|----------------------|
e|--------------------|----------------------|

  C5                        D5              g5                              
E|------------------------|--------------|-------------------|
B|-8----------10--12--10--|-7--5---------|-------------------|
G|------------------------|--------7h-9--|--7----------------|
D|------------------------|--------------|-------------------|
A|------------------------|--------------|-------------------|
e|------------------------|--------------|-------------------|

ARREGLO:
    C5                            Bb5
E|--------------------|---------------------|
B|--------------------|---------------------|
G|--5--------7--------|--8--------10--------|
D|--------------------|---------------------|
A|--3--------5--------|--6--------8---------|
e|--------------------|---------------------|

SOLO 2:
(la otra guitarra hace lo mismo q en el estribillo)
E|----------------------|--------------------|--------5-------------|
B|----------------------|-----------------8--|--7h-8----------------|
G|----------------7-----|--9h----------------|-----------7----------|
D|----------7--9-----9--|--------------------|----------------------|
A|----------------------|--------------------|----------------------|
e|----------------------|--------------------|----------------------|

                                           (comps en silencio)             
E|---------------------|-------------------|------------------|
B|---------------------|-------------------|------------------|
G|----------------7----|--5----------------|------------------|
D|--9------5-----------|-------------------|------------------|
A|---------------------|-------------------|------------------|
e|---------------------|-------------------|------------------|

                                                    
E|--------------------------|--------------------------|
B|--7h-8h-7h-8h-7h-8h-7h-8--|--7h-8h-7h-8h-7h-8h-7h-8--|
G|--------------------------|--------------------------|
D|--------------------------|--------------------------|
A|--------------------------|--------------------------|
e|--------------------------|--------------------------|

                                                     
E|--------------------------|-------------------------|
B|--7h-8h-7h-8h-7h-8h-7h-8h-|--7h-8h-7h-8h-7h-8-------|
G|--------------------------|--------------------7----|
D|--------------------------|-------------------------|
A|--------------------------|-------------------------|
e|--------------------------|-------------------------|

                                                       
E|-------------------|------------------|-----------10-----------|
B|-------------------|------------------|--7h-8h-7----------8----|
G|--5----------------|------------------|------------------------|
D|-------------------|------------------|------------------------|
A|-------------------|------------------|------------------------|
e|-------------------|------------------|------------------------|

                                                  
E|-----------10-----------|-----------10-----------|
B|--7h-8h-7----------8----|--7h-8h-7----------8----|
G|------------------------|------------------------|
D|------------------------|------------------------|
A|------------------------|------------------------|
e|------------------------|------------------------|

                                               
E|-----------10----8----7--|---8----------------|
B|--7h-8h-7----------------|--------------------|
G|-------------------------|--------------------|
D|-------------------------|--------------------|
A|-------------------------|--------------------|
e|-------------------------|--------------------|

                                                                  
E|--------7h-8h-7h-8h-7--|--7----------------|---------------------|
B|-----------------------|-------------------|--8----------8---8---|
G|-----------------------|-------------------|---------------------|
D|-----------------------|-------------------|---------------------|
A|-----------------------|-------------------|---------------------|
e|-----------------------|-------------------|---------------------|

                                                                   
E|---------------------|----------------------|---------------------|
B|--7---8--------------|----------------------|---------------------|
G|----------7----------|--7------5----5----4--|--5------------7--7--|
D|---------------------|----------------------|---------------------|
A|---------------------|----------------------|------------------5--|
e|---------------------|----------------------|---------------------|

ACORDES:

  G  D  Em C  g5 e5 B5 D5 C5 Bb5 G5 G5   A5 E5 E5   
|-3--2--0--0---------------------------------------|
|-3--3--0--1---------------------8----------5------|
|-0--2--0--0--------4--7--5--3---7-(12)-----4-(9)--|
|-0--0--2--2--5--2--4--7--5--3---5-(12)--7--2-(9)--|
|-2-----2--3--5--2--2--5--3--1-----(10)--7----(7)--|
|-3-----0-----3--0-----------------------5---------|

*: G5 y E5 se los puse de las dos maneras q se pueden hacer, cualquiera de los dos es correcta
*: g5 y e5 no estan puestos en minsculas x error

Cualquier duda, o si quieren este archivo para el guitar pro mandenme un mail a: juancho77ramone@hotmail.com
Tap to rate this tab
# A B C D E F G H I J K L M N O P Q R S T U V W X Y Z