Song name
# A B C D E F G H I J K L M N O P Q R S T U V W X Y Z

Audio Adrenaline - Undefeated tab

Drop-D tuning

Prequal:

e-----------------------------------------------|
B------7-----7-7h87-7------------7-----7-7-7-7--|
G-7-6-7-7-6-7-7------7-6-7--7-6-7-7-6-7-7-7-7-7-|
D-----------------------------------------------|
A-----------------------------------------------|
D-----------------------------------------------|

Intro:

e----------------------------------|
B----------------------------------|
G----------------------------------|
D--0-0-----0-0-----0-0-----0-0-----|
A--0-0-9b--0-0-9b--0-0-9b--0-0-9b\-|
D--0-0-----0-0-----0-0-----0-0-----|

You can play the bend as a -9h10- hammer on if you want but I think
that it sounds more like the recording if you bend it just right.

Verse:
Right-hand plam muting the whole verse.

e---------------------           ---------------------|
B---------------------           ---------------------|
G----------------7777-  X3, then ---------------------|
D-5555-4444/9999-7777-           -5555-4444-2222/7777-|
A-5555-4444/9999-5555-           -5555-4444-2222/7777-|
D-5555-4444/9999------           -5555-4444-2222/7777-|

There is also a second guitar that does A--5-4-5- once.

Chorus:
Listen to the CD to figure out the muting.

e--------------------------------------------------|
B--------------------------------------------------|
G--7--7---6--6---4--4---2--2-----------------------| (repeat)
D--7--7---6--6---4--4---2--2---5555-4444-2222/7777-|
A--5--5---4--4---2--2---0--0---5555-4444-2222/7777-|
D--0--0------------------------5555-4444-2222/7777-|

Intro pattern

Verse

Chorus

Bridge:
Part 1
Right hand palm muting

e----------------------------------------------------|
B----------------------------------------------------|
G-------------------77777777-------------------------|
D-55555555-77777777-77777777-55555555-22222222-77777-|
A-55555555-77777777-55555555-55555555-22222222-77777-|
D-55555555-77777777----------55555555-22222222-77777-|

Part 2
There is a solo but for now I'll just tab the rhythym part.
Sounds more like full chords...
e-22222222-33333333-           -------------------|
B-33333333-00000000-           -------------------|
G-22222222-00000000-  X3, then -------------------|
D-00000000-00000000-           -22222222/77777777-|
A-00000000-XXXXXXXX-           -22222222/77777777-|
D-00000000-55555555-           -22222222/77777777-|
  D        G

Then chorus

Then the intro pattern one more time. The song ends in an open D.
Tap to rate this tab
# A B C D E F G H I J K L M N O P Q R S T U V W X Y Z