Song name
# A B C D E F G H I J K L M N O P Q R S T U V W X Y Z

Audioslave - Save Yourself tab

-------------------------------------------------------------------------------
			     SONG NAME - Band Name
-------------------------------------------------------------------------------
Tabbed by: Dorsey
Email: bhmott@buffalo.edu

Tuning:Normal

Main Riff
e|--------------------------------------------------------------------------------------|
B|--------------------------------------------------------------------------------------|
G|--------------------------------------------------------------------------------------|
D|-2------------------------------------------------------------------------------------|
A|---5-2-5-2-0---7--5-2-0---------------------------------------------------------------|
E|-------------0----------3-------------------------------------------------------------|
Pre-chorus
e|----------------------------------------------------------------------------------|
B|----------------------------------------------------------------------------------|
G|----------------------------------------------------------------------------------|
D|-2------------5--7----------------------------------------------------------------|
A|---5-2-5-2-0----------------------------------------------------------------------|
E|--------------3--5----------------------------------------------------------------|
Chorus
e|----------------------------------------------------------------------------------|
B|----------------------------------------------------------------------------------|
G|----------------------------------------------------------------------------------|
D|-2-2------------------------------------------------------------------------------|
A|----0-----------------------------------------------------------------------------|
E|------3-0--3-5-7------------------------------------------------------------------|
After First Chorus (1:34)
e|---------------------------------------------------------------------------------|
B|---------------------------------------------------------------------------------|
G|-------15^^----------------------------------------------------------------------|
D|--8^^----------------------------------------------------------------------------|
A|---------------------------------------------------------------------------------|
E|---------------------------------------------------------------------------------|
After Second Chorus (2:34)
e|----------------------------------------------------------------------------------|
B|----------------------------------------------------------------------------------|
G|----------------------------------------------------------------------------------|
D|----9-7-9-7-9---------------------------------------------------------------------|
A|----------------------------------------------------------------------------------|
E|----------------------------------------------------------------------------------|

| ^  Bend String
| /  slide up
| \  slide down
| h  hammer-on
| p  pull-off
| ~  vibrato
| +  harmonic
| x  Mute note
===============================================================================
Tap to rate this tab
 
# A B C D E F G H I J K L M N O P Q R S T U V W X Y Z