Song name
# A B C D E F G H I J K L M N O P Q R S T U V W X Y Z

Audioslave - Light My Way tab

Light My Way by Audioslave

intro/chorus
e-------------------------------------------------------|
B-------------------------------------------------------|
G-------------------------------------------------------|
d-------------------------------------------------------|
A--------------3--5-3----------------------3------------|
D-3--0--0--0-------------3--0--0--0--3--5---------------|

Verse 1
it can be played with power chords or just on a single string so i;ll tab them both but 
needs a wah wah

----------------------------------------|
----------------------------------------|
----------------------------------------|
----------------------------------------|
----5--5------8--8-----3--3-3--3--------|
----------------------------------------|
 or you can play it like that
----------------------------------------|
----------------------------------------|
---7---7------10----10------5-----5-----|
---x---x-------X-----X------x-----X-----|
---5---5-------8-----8------3-----3-----|
----------------------------------------|

chours

verse 2(just the same as the verse first)

chorus

then

I think this is used with what you call a Leslie but I use RotaryI'm trying to do this 
memory but if i find the mistake I'll change it later
--------------------------------------------------------|
--------------------------------------------------------|
--------------------------------------------------------|
-------7-------7-----------10--------------10-----------|
----7----7----7--7-----10-----10-------10------10-------|
--7---------7-------10-------------10-------------------|

----------------------------------------------------|
----------------------------------------------------|
------5-----------5----------5-------------5--------| do that 2 times
---4---4-------4---4------3-----3-------3-----------|
----------------------------------------------------|
-6----------6-----------5------------5---------5----|

okay i know its not the whole thing but i'll fininsh it later and see if that part above is right
Tap to rate this tab
 
# A B C D E F G H I J K L M N O P Q R S T U V W X Y Z