Song name
# A B C D E F G H I J K L M N O P Q R S T U V W X Y Z

Audioslave - Heavens Dead tab

----------------------------------------------------------------------------
			     SONG NAME - Band Name
----------------------------------------------------------------------------
Tabbed by: Jason Earl
Email: jjearl@sympatico.ca
Tuning: Normal

With Digitex Delay Pedal
e|--------------10---------------------------------------------------------|
B|----------------------------------10--------10----8-----7----------------|
G|----7------------------7-----------------------------------------9-------|
D|-------------------------------------------------------------------------|
A|-------------------------------------------------------------------------|
E|-------------------------------------------------------------------------|

e|-------------------------------------------------------------------------|
B|----------------------------------------------------10-------------------|
G|-----9b-----9b--------9b--------7------------7-------------7-------------|
D|---------------------------------------9---------------------------------|
A|-------------------------------------------------------------------------|
E|-------------------------------------------------------------------------|

e|-------------------------------------------------------------------------|
B|-------10------8------7--------8-------7-----------7----8---7------------|
G|---------------------------------------------9-------------------9---7---|
D|-------------------------------------------------------------------------|
A|-------------------------------------------------------------------------|
E|-------------------------------------------------------------------------|

e|---------------------------------------------------------------------------|
B|------------7+-------------------------------------------------------------|
G|--------7+------7+---------------------------------------------------------|
D|----7+--------------0------------------------------------------------------|
A|---------------------------------------------------------------------------|
E|---------------------------------------------------------------------------|

e|-------------------------------------------------------------------------|
B|-------------------------------------------------------------------------|
G|-------------------------------------------------------------------------|
D|-------------------------------------------------------------------------|
A|-------------------------------------------------------------------------|
E|-------------------------------------------------------------------------|


| /  slide up
| \  slide down
| h  hammer-on
| p  pull-off
| ~  vibrato
| +  harmonic
| x  Mute note
============================================================================
Tap to rate this tab
# A B C D E F G H I J K L M N O P Q R S T U V W X Y Z