Song name
# A B C D E F G H I J K L M N O P Q R S T U V W X Y Z

August Burns Red - White Washed tab

Hey everyone, here's a pretty accurate tab of White Washed. This band is so hardcore, 
so is this song. Enjoy, and feel free to comment! ^^

INTRO:

(Let the notes ring, so it gives it a nice sound)

|13h17p13-12/13\12------|
|------------------15---|
|---------------------14| x28
|-----------------------|
|-----------------------|
|-----------------------|
     ^       ^
*Only Lead Guitar*

|-------------------------|
|-------------------------|
|-------------------------|
|0------------------------|
|0------------------------|
|0------------------------|

VERSE 1:

|------------------------------------|
|------------------------------------|
|----------------------10---14---10--|
|------7---8---7/12------------------|
|------------------------------------|
|0-0-0---0---0-------0----0----0----0|
 . . .   .   .       .    .    .    .

|---------------------------------------------|
|-------------------14h17p14------------------|
|--------------14------------14---------------|
|14h15p14h17--------------------14----------14|
|----------------------------------16p12h16---|
|------------0----0---------------------------|
             .    .

|------------------------------------|
|------------------------------------|
|----------------------10---14---10--|
|------7---8---7/12------------------|
|------------------------------------|
|0-0-0---0---0-------0----0----0----0|
 . . .   .   .       .    .    .    .

|----------------------------------------|
|----------------------------------------|
|--------------14------------------------|
|14h15p14h17--------15-----14------------|
|-------------------------------16---12--|
|------------0----0----0-0----0----0----0|
             .    .    . .    .    .    .

|------------------------------------|
|------------------------------------|
|----------------------10---14---10--|
|------7---8---7/12------------------|
|------------------------------------|
|0-0-0---0---0-------0----0----0----0|
 . . .   .   .       .    .    .    .

|---------------------------------------------|
|-------------------14h17p14------------------|
|--------------14------------14---------------|
|14h15p14h17--------------------14----------14|
|----------------------------------16p12h16---|
|------------0----0---------------------------|
             .    .

|------------------------------------|
|------------------------------------|
|----------------------10---14---10--|
|------7---8---7/12------------------|
|------------------------------------|
|0-0-0---0---0-------0----0----0----0|
 . . .   .   .       .    .    .    .

|-------------------------------|
|-------------------------------|
|--------------14---------------|
|14h15p14h17--------15-----8-7-3|
|--------------------------8-7-3|
|------------0----0----0-0-8-7-3|
             .    .    . .

|-----------------------------------------|
|-----------------------------------------|
|-----------------------------------------|
|7---5h7---0---7---5h7---7h10---8---7---5h| x4
|-----------------------------------------|
|--0-----0---0---0-----0------0---0---0---|
   .     .   .   .     .      .   .   .

BREAKDOWN:


Very easy to figure out on your own.


VERSE 2:

|-----------------------------------------|
|-----------------------------------------|
|-----------------------------------------|
|12h15p12--------------------10---8---7---|
|---------15----15----13------------------|
|------------10----10----8-8----8---8---8-|
              .     .    . .    .   .   .

|-------------------------------|
|-------------------------------|
|-------------------------------|
|3-3---3---3---5-----7---8---7--|
|-------------------------------|
|----3---3---3---5-5---5---5---5|
     .   .   .   . .   .   .   .

|-----------------------------------------|
|-----------------------------------------|
|-----------------------------------------|
|12h15p12--------------------10---8---7---|
|---------15----15----13------------------|
|------------10----10----8-8----8---8---8-|
              .     .    . .    .   .   .

|--------------------------------|
|6-6---8---6-----8-8---10---8----|
|--------------------------------|
|--------------------------------|
|--------------------------------|
|----3---3---3-3-----5----5---5-5|
     .   .   . .     .    .   . .

|-----------------------------------------|
|-----------------------------------------|
|-----------------------------------------|
|12h15p12--------------------10---8---7---|
|---------15----15----13------------------|
|------------10----10----8-8----8---8---8-|
              .     .    . .    .   .   .

|-------------------------------|
|-------------------------------|
|-------------------------------|
|3-3---3---3---5-----7---8---7--|
|-------------------------------|
|----3---3---3---5-5---5---5---5|
     .   .   .   . .   .   .   .

|-----------------------------------------|
|-----------------------------------------|
|-----------------------------------------|
|12h15p12--------------------10---8---7---|
|---------15----15----13------------------|
|------------10----10----8-8----8---8---8-|
              .     .    . .    .   .   .

|-------------------------------|
|6-6---8---6-----5-5---6---5----|
|-------------------------------|
|-------------------------------|
|-------------------------------|
|----3---3---3-3-----5---5---5-5|
     .   .   . .     .   .   . .

|-----------------------------------------|
|-----------------------------------------|
|-----------------------------------------|
|7---5h7---0---7---5h7---7h10---8---7---5h| x4
|-----------------------------------------|
|--0-----0---0---0-----0------0---0---0---|
   .     .   .   .     .      .   .   .

REALLYFASTRIFF:

|----------------------------------------------------------------|
|----------------------------------------------------------------|
|----------------------------------------------------------------|
|------------------------7-7-7-7-8-8-7-7-5-5-5-5-7-7-5-5---------|
|5-5-5-5-5-5-5-5-8-8-8-8---------------------------------8-8-8-8-|
|----------------------------------------------------------------|
 . . . . . . . . . . . . . . . . . . . . . . . . . . . . . . . .

|----------------------------------------------------------------|
|----------------------------------------------------------------|
|--------------------------------5-5-5-5-6-6-6-6-8-8-8-8---------|
|------------------------7-7-7-7-------------------------7-7-7-7-|
|5-5-5-5-5-5-5-5-8-8-8-8-----------------------------------------|
|----------------------------------------------------------------|
 . . . . . . . . . . . . . . . . . . . . . . . . . . . . . . . .   x3

|----------------------------------------------------------------|
|----------------------------------------------------------------|
|----------------------------------------------------------------|
|------------------------7-7-7-7-8-8-7-7-5-5-5-5-7-7-5-5---------|
|5-5-5-5-5-5-5-5-8-8-8-8---------------------------------8-8-8-8-|
|----------------------------------------------------------------|
 . . . . . . . . . . . . . . . . . . . . . . . . . . . . . . . .

|----------------------------------------------------------------|
|----------------------------------------------------------------|
|----------------------------------------------------------------|
|------------------------5-5-5-5---------7-7-7-7-5-5-5-5-8-8-8-8-|
|5-5-5-5-8-8-8-8-7-7-7-7---------8-8-8-8-------------------------|
|----------------------------------------------------------------|
 . . . . . . . . . . . . . . . . . . . . . . . . . . . . . . . .


ENDING RIFFS: (With Another Breakdown)

|-------------------------|
|-------------------------|
|-------------------------|
|0------------------------|
|0------------------------|
|0------------------------|


|13h17p13-12/13\12------|
|------------------15---|
|---------------------14|
|-----------------------| x4
|-----------------------|
|-----------------------|

                                             --
|-------------------------|                   |
|-------------------------|                   |
|-------------------------|                   |
|0-0-0-000-0000-0-0-000-0-|                   |
|0-0-0-000 0000-0-0-000-0-|                   |
|0-0-0-000-0000-0-0-000-0-|                   |
 . . . ... .... . . ... .                     |
                                              | x2
|--------------------------------|            |
|--------------------------------|            |
|--------------------------------|            |
|0-0-0-000-0000-0-0-0-----------7| <- P.H.    |
|0-0-0-000 0000-0-0-0------------|            |
|0-0-0-000-0000-0-0-0-7p8p3p0-0--|            |
 . . . ... .... . . . . . . .                 |
                                             --
|13h17p13-12-13h17p13\12/13\12------|
|-----------------------------15----|
|-------------------------------14--|
|-----------------------------------| x4
|-----------------------------------|
|-----------------------------------|


|13h17p13\12/13\12------|
|-----------------15----|
|-------------------14--|
|-----------------------| x8
|-----------------------|
|-----------------------|


|13h17p13\12/13\12/13\12-|
|------------------------|
|------------------------|
|------------------------| x8 (fade out)
|------------------------|
|------------------------|

Key:

.     Palm mute

/     Slide Up

\     Slide Down

h     Hammer On

p     Pull Off

P.H.  Pinch Harmonic
Tap to rate this tab
# A B C D E F G H I J K L M N O P Q R S T U V W X Y Z