Song name
# A B C D E F G H I J K L M N O P Q R S T U V W X Y Z

August Burns Red - Divisions tab

Song: Divisions
Artist: August Burns Red
Album: Leveler

Transcribed by Tommy Crawford (hamishmcgee)

Drop C Tuning
(C G C F A D)

Tab Legend
-----------------
* = Palm Mute
h = Hammer On
p = Pull Off
\ = Slide Down
/ = Slide Up
<#> = Natural Harmonic
~ = vibrato
L = Tie Note
# = Rest
(each '--' represents an eighth note, except in cases where a double digit number 
is involved, ie - 10)

Hey guys, as requested this is my Guitar Pro tab written out, hope it's easy 
enough to read! If two blocks of bars are attached to each other buy a '|' then it 
means they are separate guitar parts played at the same time, otherwise both 
guitars play the same bit.


INTRO

The song starts with an off-time drum beat, which consists of one bar of 4/4 
followed by a bar of 7/8, which repeats, and then the guitars come in with the 
intro riff, still in the off-time beat.

4/4               7/8              4/4               7/8              
|-----------------|---------------|-----------------|---------------|
|-----------------|---------------|-----------------|---------------|
|-----------------|---------------|-----------------|---------------|
|-<12>------------|---------------|-----------------|---------------|
|-<12>------------|---------------|-----------------|---------------|
|-<12>------------|---------------|-----------------|---------------|
|
|-----------------|---------------|-----------------|---------------|
|-----------------|---------------|-----------------|---------------|
|-----------------|---------------|-----------------|---------------|
|-----------------|---------------|-----------------|---------------|
|-----------------|---------------|-12\-------------|---------------|
|-----------------|---------------|-12\-------------|---------------|
                                     PICK SLIDE

INTRO RIFF

4/4               7/8              4/4               7/8              
|-----------------|---------------|-----------------|---------------|
|-----------------|---------------|-----------------|---------------|
|-----------------|---------------|-----------------|---------------| x2
|-5---5---5-5---5-|---5-5-5---5-5-|-5---5---5-5---5-|---5-5-5---5-5-|
|-6---6---6-6---6-|---6-6-6---6-6-|-6---6---6-6---6-|---6-6-6---6-6-|
|-5---5---5-5---5-|---5-5-5---5-5-|-5---5---5-5---5-|---5-5-5---5-5-|


RIFF A

4/4
|-----------------|-----------------|-----------------|--------------------|
|-----------------|-----------------|-----------------|--------------------|
|-----------------|-----------------|-----------------|--------------------|
|-1/5-5-5-5-5-x-5-|---5-x-5---5-5-5-|-1/5-5-5-5-5-x---|-8-10-7---------7-0-|
|-1/5-5-5-5-5-x-3-|---3-x-6---6-6-6-|-1/5-5-5-5-5-x---|--------10-6-10-----|             \
|-----------------|-----------------|---------------0-|--------------------|              \
                    L       L                       *                                      \
                                                                                            x2
                                                                                           /
|-----------------|-----------------|-------------------------|-------------------------| /
|-----------------|-----------------|-------------------------|-------------------------|/
|-----------------|-----------------|-------------------------|-------------------------|
|-1/5-5-5-5-5-x-5-|---5-x-5---5-5-5-|----------10-12-10-------|-------------------------|
|-1/5-5-5-5-5-x-3-|---3-x-6---6-6-6-|-------12----------12-10-|-12-10-13-12-10----------|
|-----------------|-----------------|-10-12-------------------|----------------13-12-10-|
                    L       L


BREAK

4/4
|-----------------|-----------------|-----------------|-----------------|
|-----------------|-----------------|-----------------|-----------------|
|-7-----7-7-7-7---|---7---7-7---7---|-7-----7-7-7-7---|---7---7-7-7-7-7-|
|-5-----5-5-5-5---|---5---5-5---5---|-5-----5-5-5-5---|---5---5-5-5-5-5-|
|-5-----5-5-5-5---|---5---5-5---5---|-5-----5-5-5-5---|---5---5-5-5-5-5-|
|-5-----5-5-5-5---|---5---5-5---5---|-5-----5-5-5-5---|---5---5-5-5-5-5-|

4/4
|-----------------|-----------------|-----------------|-----------------|
|-----------------|-----------------|-----------------|-----------------|
|-8-----8-8-8-8---|---8---8-8---8---|-7-----7-7-7-7---|---7---7-7-7-7-7-|
|-5-----5-5-5-5---|---5---5-5---5---|-5-----5-5-5-5---|---5---5-5-5-5-5-|
|-6-----6-6-6-6---|---6---6-6---6---|-5-----5-5-5-5---|---5---5-5-5-5-5-|
|-5-----5-5-5-5---|---5---5-5---5---|-5-----5-5-5-5---|---5---5-5-5-5-5-|
|
|
|-----------------|-----------------|-----------------|-----------------|
|-8-----8-8-8-8---|---8---8-8---8---|-----------------|-----------------|
|-x-----x-x-x-x---|---x---x-x---x---|-7-----7-7-7-7---|---7---7-7-7-7-7-|
|-5-----5-5-5-5---|---5---5-5---5---|-5-----5-5-5-5---|---5---5-5-5-5-5-|
|-5-----5-5-5-5---|---5---5-5---5---|-5-----5-5-5-5---|---5---5-5-5-5-5-|
|-5-----5-5-5-5---|---5---5-5---5---|-5-----5-5-5-5---|---5---5-5-5-5-5-|


RIFF B
4/4
|-----------------|-----------------|-----------------|-----------------|
|-----------------|-----------------|-----------------|-----------------|
|-----------------|-----------------|-----------------|-----------------|
|-----------------|---5-------------|-----------------|---5-5-5-5-5-5-5-|
|-----------------|-----6-5---6-----|-----------------|---6-6-6-6-6-6-6-|\
|-0---0-0-5p0-0-0-|---------6---6-5-|-0---0-0-5p0-0-0-|---5-5-5-5-5-5-5-| \
    L * *     * *   #                   L * *     * *   #                  \
                                                       _________________    x2
4/4                                                   |1.                  /
|-----------------|-----------------|-----------------|-----------------| /
|-----------------|-----------------|-----------------|-----------------|/
|-----------------|-----------------|-----------------|-----------------|
|-----------------|---5-------------|-----------------|-----------------|
|-----------------|-----6-5---6-----|-8-\-1-1---4-4---|-----0---7---7---|
|-0---0-0-5p0-0-0-|---------6---6-5-|-8-\-1-1---4-4---|-----0---7---7---|
    L * *     * *   #                                   L
 _________________
|2.
|-----------------|
|-----------------|
|-----------------|
|-----------------|
|-----0---7-7-7-7-|
|-----0---7-7-7-7-|
  L


BUILD UP

                                                     _______________
                                                    | 1.
4/4               7/8              4/4               7/8              
|-----------------|---------------|-----------------|---------------|
|-----------------|---------------|-----------------|---------------|
|-----------------|---------------|-----------------|---------------|
|-----------------|---------------|-----------------|---------------|
|-0---0---0-0---0-|-0---0---0-0-0-|-0---0---0-0---0-|-0---0---0-0-0-|\
|-0---0---0-0---0-|-0---0---0-0-0-|-0---0---0-0---0-|-0---0---0-0-0-| \
| *   *   * *   *   *   *   * * *   *   *   * *   *   *   *   * * * |  \
|                                                                       x2
| Backing Guitar                                                    |  /
|-----------------|---------------|-----------------|---------------| /
|-----------------|---------------|-----------------|---------------|/
|-----------------|---------------|-----------------|---------------|
|-5-5-5-5-5-5-5-5-|-5-5-5-5-5-5-5-|-5-5-5-5-5-5-5-5-|-5-5-5-5-5-5-5-|
|-6-6-6-6-6-6-6-6-|-6-6-6-6-6-6-6-|-6-6-6-6-6-6-6-6-|-6-6-6-6-6-6-6-|
|-5-5-5-5-5-5-5-5-|-5-5-5-5-5-5-5-|-5-5-5-5-5-5-5-5-|-5-5-5-5-5-5-5-|

 _______________
| 2.
|---------------|
|---------------|
|---------------|
|---------------|
|-0---0-0-0-0---|
|-0---0-0-0-0---|
| *   * * * * #
|
|---------------|
|---------------|
|---------------|
|-5-5-5-5-5-5---|
|-6-6-6-6-6-6---|
|-5-5-5-5-5-5---|
              #


BREAKDOWN (same as 'BUILD UP', but just let the open palm mute ring out)

4/4               7/8              4/4               7/8              
|-----------------|---------------|-----------------|---------------|
|-----------------|---------------|-----------------|---------------|
|-----------------|---------------|-----------------|---------------|
|-----------------|---------------|-----------------|---------------|  x6
|-0---0---0-0---0-|-0---0---0-0-0-|-0---0---0-0---0-|-0---0---0-0-0-|
|-0---0---0-0---0-|-0---0---0-0-0-|-0---0---0-0---0-|-0---0---0-0-0-|
| *   *   * *   *   *   *   * * *   *   *   * *   *   *   *   * * * |


BREAKDOWN LEAD (this plays during the breakdown after it has repeated once, and is 
in 4/4 all the way through)

4/4
|-----------------|-----------------|-----------------|-----------------|
|-----------------|-----------------|-----------------|-----------------|
|-11------b12-----|-r11-------10----|---------10------|-10------10------|
|-----------------|-----9-----------|-----9-------9---|-----9-------9---|  x4
|-----------------|-----------------|-----------------|-----------------|
|-----------------|-----------------|-----------------|-----------------|
                    L       L         L

This bar is a fix at the end of the breakdown, so that it catches up with the lead.

4/4
|-----------------|
|-----------------|
|-----------------|
|-----------------|
|-0---0---0-0-0-0-|
|-0---0---0-0-0-0-|
  *   *   * * * *


INTERLUDE

4/4
|-----------------|-----------------|-----------------|-----------------|
|-----------------|-----------------|-----------------|-----------------|
|-----------------|-----------------|-----------------|-----------------|
|-5---------------|-----------------|-5---------------|-----------------|
|-6---------------|-----------------|-5---------------|-----------------|
|-5---------------|-----------------|-5---------------|-----------------|
|
|-----------------|-----------------|-----------------|-----------------|
|-----------------|-----------------|-----------------|-----------------|
|-----------------|-----------------|-----------------|-7---------------|
|-5---------------|-7-----5---------|-5---------------|-------5---------|
|-6---------------|-------------6---|-5---------------|-------------5---|\
|-5---------------|-----------------|-5---------------|-----------------| \
                                                                           \
                                                                            x2
4/4                                                                        /
|-----------------|-----------------|-----------------|-----------------| /
|-----------------|-----------------|-----------------|-----------------|/
|-----------------|-----------------|-----------------|-----------------|
|-5---------------|-----------------|-5---------------|-----------------|
|-3---------------|-----------------|-5---------------|-----------------|
|-3---------------|-----------------|-5---------------|-----------------|
|
|-----------------|-----------------|-----------------|-----------------|
|-----------------|-----------------|-----------------|-----------------|
|-----------------|-----------------|-----------------|-----------------|
|-5---------------|-5---------------|-5---------------|-----------------|
|-3---------------|-------5-----3---|-5---------------|-6-----5---------|
|-3---------------|-----------------|-5---------------|-------------5---|


INTERLUDE LEAD (while the other guitar repeats the interlude for the first time, 
the lead guitar plays this)

4/4
|-----------------|-----------------|-----------------|-----------------|
|-10--------------|-----------------|-11--------------|-----------------|
|----12---12------|-----------------|----12---12------|-----------------|
|-------12--------|-----------------|-------12--------|-----------------|
|-----------------|-----------------|-----------------|-----------------|
|-----------------|-----------------|-----------------|-----------------|
                    L                                   L
4/4
|-----------------|-----------------|-15----15--15--15-|-18----18--18--18-|
|-13--------------|-----------------|----15---15--15---|----15---15--15---|
|----12---12------|-----------------|------------------|------------------|
|-------12--------|-----------------|------------------|------------------|
|-----------------|-----------------|------------------|------------------|
|-----------------|-----------------|------------------|------------------|
                    L                                   L


OUTRO SECTION

4/4
|-----------------|-----------------|-----------------|-----------------|
|-----------------|-----------------|-----------------|-----------------|
|-----------------|-----------------|-----------------|-----------------|
|-5--5--5-5--5--5-|-5--5--5-5--5--5-|-5--5--5-5-------|-5--5--5-5-------|  x4
|-6--6--6-6--6--5-|-3--3--3-3--3--3-|-5--5--5-5-xx1/5-|-5--5--5-5-xx1/5-|
|-5--5--5-5--5--5-|-3--3--3-3--3--3-|-5--5--5-5-xx1/5-|-5--5--5-5-xx1/5-|



OUTRO LEAD (lead guitar plays this while the other guitar plays the OUTRO SECTION 4 more times)

4/4                
|------------------|-------------------|-------------------|-------------------|
|-15---------------|-------------------|-------------------|-------------------|
|----12---------12-|-------------12-14-|-15-12-------------|-10-12-------------|
|-------12\-8/12---|-------12b---------|-------12\-10/12-8-|-------12\-10/12-8-|
|------------------|-10-13-------------|-------------------|-------------------|\
|------------------|-------------------|-------------------|-------------------| \
                                                                                  x2
4/4                                                                              /
|------------------|-------------------|-------------------|------------15-----|/
|-15---------------|-------------------|------------15-----|-15-----------15---|
|----12---------12-|-------------12-14-|-15-12--------12---|----12----------12-|
|-------12\-8/12---|-------12b---------|-------12-------12-|-------12----------|
|------------------|-10-13-------------|-------------------|-------------------|
|------------------|-------------------|-------------------|-------------------|


4/4
|-15--------18----|-18--------------|
|----15-------15--|----15-----------|
|-------12--------|-----------------|
|---------------17|-------17--------|
|-----------------|-----------------|
|-----------------|-----------------|
|
|-----------------|-----------------|
|-----------------|-----------------|
|-----------------|-----------------|
|-5--5--5-5-------|-5--5--5---------|
|-5--5--5-5-xx1/5-|-5--5--5---------|
|-5--5--5-5-xx1/5-|-5--5--5---------|
                            #
Tap to rate this tab
# A B C D E F G H I J K L M N O P Q R S T U V W X Y Z