Song name
# A B C D E F G H I J K L M N O P Q R S T U V W X Y Z

August Burns Red - Carol Of The Bells tab

Whew my first tab! Go ahead and review it, gimme comments and wwhatnot, so go ahead and
it a try! I've learned to play this song after a short while and here is how I play it,
am by no means a very good guitar player, but I'm learning and here, with this, I hope 
help someone else.

KEY:
\ slide down
/ slide up
* pick, cut note short (very slight)
P palm mute
SP slight palm mute


|----------------------------------------|
|----------------------------------------|
|----------------------------------------|
|-3--2-3-0--3--2-3-0--3--2-3-0--3--2-3-0-|
|----------------------------------------|
|----------------------------------------|

P~~~~~~~~~~~~~~~~~~~~~~~~~~~~~~~~~~~~~P
|-------------------------------------|
|-5-5-4-5-2-2-5-5-4-5-2-2-5-5-4-5-2-2-|
|-------------------------------------|
|-------------------------------------|
|-------------------------------------|
|-------------------------------------|
P~~~~~~~~~~~~~~~~~~~~~~~~~~~~~~~~~~~~~P

|---------------------------------------------|
|-2-222-2-------------------------------------|
|---------5\3-2-222-2-------------2/3---------|
|---------------------5\3/5-555-5-----0-000-0-|
|---------------------------------------------|
|---------------------------------------------|

SP~~~~~~~~~~~~~~~~~~~~~~~~~~~~~~~~~~~~~~~~~~~~~~~~~SP
|---------------------------------------------------|
|---------------------------------------------------|
|---------------------------------------------------|
|---------------------------------------------------|
|-0*--4*--5*--7*-8*-7*-5*--0*--4*--5*--7*-8*-7*-5*--|
|---------------------------------------------------|
SP~~~~~~~~~~~~~~~~~~~~~~~~~~~~~~~~~~~~~~~~~~~~~~~~~SP

|----------------------------------------|
|----------------------------------------|
|----------------------------------------|
|-3--2-3-0--3--2-3-0--3--2-3-0--3--2-3-0-|
|----------------------------------------|
|----------------------------------------|


|----------------------------------------|
|-5--4-5-2--5--4-5-2--5--4-5-2--5--4-5-2-|
|----------------------------------------|
|----------------------------------------|
|----------------------------------------|
|----------------------------------------|


|-10-101010-10------------------------------------------------|
|--------------12\10-9-999-9--------------------9/10----------|
|----------------------------12\10/12-121212-12-----7-777-7-7-|
|-------------------------------------------------------------|
|-------------------------------------------------------------|
|-------------------------------------------------------------|

SP~~~~~~~~~~~~~~~~~~~~~~~~~~~~~~~~~~~~~~~~~~~~~~~~SP
|--------------------------------------------------|
|--------------------------------------------------|
|--------------------------------------------------|
|--------------------------------------------------|
|-0*--4*--5*--7*-8*-7*--5*--7*--8*--7*-8*-7*--/17--|
|--------------------------------------------------|
SP~~~~~~~~~~~~~~~~~~~~~~~~~~~~~~~~~~~~~~~~~~~~~~~~SP

|---------------------------------------------------|
|---------------------------------------------------|
|---------------------------------------------------|
|-0-000-00000-00000-000-00000-00000-000-00000-00000-|
|-0-000-00000-00000-000-00000-00000-000-00000-00000-|
|-0-000-00000-00000-000-00000-00000-000-00000-00000-|


|-10-101010-10------------------------------------------------|
|--------------12\10-9-999-9--------------------9/10----------|
|----------------------------12\10/12-121212-12-----7-777-7-7-|
|-------------------------------------------------------------|
|-------------------------------------------------------------|
|-------------------------------------------------------------|

|---------------------------------------------------|
|---------------------------------------------------|
|---------------------------------------------------|
|---------------------------------------------------|
|-0*--4*--5*--7*-8*-7*-5*--0*--4*--5*--7*-8*-7*-5*--|
|---------------------------------------------------|


|-------------------------------------------------|
|-------------------------------------------------|
|-10*--9*-10*-7*--10*--9*-10*-7*--10*--9*-10*-7*--|
|-------------------------------------------------|
|-------------------------------------------------|
|-------------------------------------------------|


|--------------------------------------------------------------------------|
|-15-151515-15-------------------------------------------------------------|
|--------------17\15-14-141414-14--------------------14/15-----------------|
|---------------------------------17\15/17-171717-17-------12-121212-12-12-|
|--------------------------------------------------------------------------|
|--------------------------------------------------------------------------|


|----------------------------|
|----------------------------|
|----------------------------|
|-----------------------0-0--|
|-0*--4*--5*--7*-8*-7*--0-0--|
|-----------------------0-0--|


|----------------------------|
|----------------------------|
|----------------------------|
|-----------------------0-0--|
|-0*--4*--5*--7*-8*-7*--0-0--|
|-----------------------0-0--|


|----------------------------|
|----------------------------|
|----------------------------|
|----------------------------|
|-5*--7*--8*--7*-8*-7*--/17--|
|----------------------------|


|----------------------------------------|
|----------------------------------------|
|----------------------------------------|
|-3--2-3-0--3--2-3-0--3--2-3-0--3--2-3-0-|
|----------------------------------------|
|----------------------------------------|


|----------------------------------------|
|-5--4-5-2--5--4-5-2--5--4-5-2--5--4-5-2-|
|----------------------------------------|
|----------------------------------------|
|----------------------------------------|
|----------------------------------------|


|---|
|---|
|---|
|-0-|
|-0-|
|-0-|
Tap to rate this tab
 
# A B C D E F G H I J K L M N O P Q R S T U V W X Y Z