Song name
# A B C D E F G H I J K L M N O P Q R S T U V W X Y Z

August Burns Red - Carol Of The Bells tab

This wasn't too hard to pick out but it is fast at times. Hope you enjoy.

1------------------------------------------------------------------|
2------------------------------------------------------------------|
3------------------------------------------------------------------|
4------------------------------------------------------------------|
5--6-5h6-----------------------------------------------------------|
6--------8---------------------------------------------------------|

the second guitar comes in with this

1------------------------------------------------------------------|
2------------------------------------------------------------------|
3------------------------------------------------------------------|
4--5---5-----------------------------------------------------------|
5----8---6---------------------------------------------------------|
6------------------------------------------------------------------|

rhythm for these first two parts is....

C         A#         G#        G


1------------------------------------------------------------------|
2------------------------------------------------------------------|
3--8--7h8--5-------------------------------------------------------|
4------------------------------------------------------------------|
5------------------------------------------------------------------|
6------------------------------------------------------------------|

this is played a little faster

1------------------------------------------------------------------|
2------------------------------------------------------------------|
3--55--------------------------------------------------------------|
4----8-6-55------------555-----------------------------------------|
5----------8-6-55-6-8----------------------------------------------|
6------------------------------------------------------------------|


1------------------------------------------------------------------|
2------------------------------------------------------------------|
3------------------------------------------------------------------|
4----------5h6-5---------------------------------------------------|
5--55-66-88-----8--------------------------------------------------|
6------------------------------------------------------------------|

That's the whole song except for the heavy distortion part... That can't be played 
unless in drop C.
Tap to rate this tab
# A B C D E F G H I J K L M N O P Q R S T U V W X Y Z