Song name
# A B C D E F G H I J K L M N O P Q R S T U V W X Y Z

Aura Dione - Something From Nothing tab

-------------------------------------------------------------------------------
			     Aura Dione - Something From Nothing
-------------------------------------------------------------------------------


This tab is based on Aura Dione's acoustic performance of Something From Nothing in 
Danmark".
Link: http://youtube.com/watch?v=JYpj2nNyDSA

Standard tuning
Capo on 2nd fred
Tabbed by NMahler

Intro
----------------------------------|
8---10---7---8---5-5-3-3h5p3------|
--0----0---0---0--0----------0----|
----------------------------------|
7--------5-------3-------------3--|
----------------------------------|

---------------0---------0--------|
----0--------3-------3-------3----|
-----------2-------0---0---0---0--|
---------0------------------------|
--2---2----------3----------------|
0---------------------------------|

----------------------------------|
8---10---7---8---5-5-3-3h5p3------|
--0----0---0---0--0----------0----|
----------------------------------|
7--------5-------3-------------3--|
----------------------------------|

---------------0---------0--------|
----0--------3-------3-------3----|
-----------2-------0---0---0---0--|
---------0------------------------|
--2---2----------3----------------|
0---------------------------------|


Verse
-----------------------|
--8-7-------5---3------|
--0-0-------0---0------|
-----------------------|
7---5---2-3---2----2---|
---------------------0-|

-----------------------|
--8-7-------5---3------|
--0-0-------0---0------|
-----------------------|
7---5---2-3---2----2---|
---------------------0-|


Chorus (pick or play as chords)
----------------------------------|
8---10---7---8---5-5-3-3h5p3------|
--0----0---0---0--0----------0----|
----------------------------------|
7--------5-------3-------------3--|
----------------------------------|

---------------0---------0--------|
----0--------3-------3-------3----|
-----------2-------0---0---0---0--|
---------0------------------------|
--2---2----------3----------------|
0---------------------------------|

Official website of Aura Dione: http://www.myspace.com/auradione
Tap to rate this tab
# A B C D E F G H I J K L M N O P Q R S T U V W X Y Z