Song name
# A B C D E F G H I J K L M N O P Q R S T U V W X Y Z

Autograph - Turn Up The Radio tab


Intro
E|---------------------------------|
B|---------------------------------|
G|---------------------------------|
D|---------------5---------------5-|
A|---------------5---------------5-|
E|-3-3-3-3-3-3-3---3-3-3-3-3-3-3---|

Verse
E|------------------------------------------------------------------|
B|------------------------------------------------------------------|
G|------------------------------------------------------------------|
D|---------------5---------------5---------------5-------/5---3---0-|
A|---------------5---------------5---------------5------/5---3---2--|
E|-3-3-3-3-3-3-3---3-3-3-3-3-3-3---3-3-3-3-3-3-3---3-3--------------|

Chorus
E|----------------------------------------------------|
B|----------------------------------------------------|
G|-9---7-------7---2-------5-----------14---13--------|
D|-9---7-------7---2-------5---5-------14---14--------|
A|-7---5-------5---0-------3---5-------12---11--------|
E|-----------------------------3----------------------|





Tap to rate this tab
# A B C D E F G H I J K L M N O P Q R S T U V W X Y Z