Song name
# A B C D E F G H I J K L M N O P Q R S T U V W X Y Z

Avantasia - Cry Just A Little tab

       Dm7           
e |-----x------|-----x------|-------6----|-----5------|
B |-----6------|-----8------|------6-----|-----6------|
G |-----5------|-----5------|-----5------|-----5------|
D |-----7------|-----x------|-----x------|-----x------|
A |-----x------|-----x------|-----x------|-----x------|
E |-----x------|-----x------|-----x------|-----x------|

Keep fretting 5th throughout the intro

e |-----8------|-----8------|
B |--6-8-8-6---|--5-8-8-5---|
G |-5----------|-5----------|
D |------------|------------|
A |------------|------------|
E |------------|------------|
Tap to rate this tab
# A B C D E F G H I J K L M N O P Q R S T U V W X Y Z