Song name
# A B C D E F G H I J K L M N O P Q R S T U V W X Y Z

Avantasia - Cry Just A Little tab

--------------------------------------------------------------------------------
                                             Cry Just A Little - Avantasia
-------------------------------------------------------------------------------

You'll figure out rythm easily if you have listened to song at least 3 times

Tabbed by: Mishkatrishka

Tuning: Standard EADGBe

Intro 

      Dm             C                 Bb                 F
e|-----1-------------3------------------6------------------------------------|
B|--------------------------------------------------------10-----------------|
G|---------------------------------------------------------------------------|
D|-----0---------------------------------------------------------------------|
A|-------------------3------------------8------------------8-----------------|
E|---------------------------------------------------------------------------|

     Dm                                 C

e|----1---------------1-----------------3------------------------------------|
B|--------------------------------------------------------------------6------|
G|--------------------------------------------------------------5-7----------|
D|----0---------------3-----------------------------------5h7----------------|
A|--------------------------------------3------------------------------------|
E|---------------------------------------------------------------------------|

       Csus4

e|----------------8-----------------8----------------8--------------8--------|
B|-------------8----8-------------8---8------------8---8----------8---8------|
G|---------10---------10-------10-------10------10-------10-----10------10---|
D|------10-------------------10--------------10---------------10-------------|
A|---------------------------------------------------------------------------|
E|---------------------------------------------------------------------------|

       Csus4

e|----------------8-----------------8----------------8--------------8--------|
B|-------------8----8-------------8---8------------8---8----------8---8------|
G|---------10---------10-------10-------10------10-------10-----10------10---|
D|------10-------------------10--------------10---------------10-------------|
A|---------------------------------------------------------------------------|
E|---------------------------------------------------------------------------|

Verse

A heart out of affection, a night at the masquerade

||Gtr1   Csus4
||
||e|----------------8-----------------8----------------8--------------8--------|
||B|-------------8----8-------------8---8------------8---8----------8---8------|
||G|---------10---------10-------10-------10------10-------10-----10------10---|
||D|------10-------------------10--------------10---------------10-------------|
||A|---------------------------------------------------------------------------|
||E|---------------------------------------------------------------------------|
||
||Gtr2
||
||e|---------------------------------------------------------------------------|
||B|---------------------------------------------------------------------------|
||G|---------------------------------------------------------------------------|
||D|---------------------------------------------------------------------------|
||A|---------------------------------------------------------------------------|
||E|---------------------------------------------------------------------------|

You won some and you're lonesome as the spotlight fades.

||Gtr1   Csus4
||
||e|----------------8-----------------8----------------8--------------8--------|
||B|-------------8----8-------------8---8------------8---8----------8---8------|
||G|---------10---------10-------10-------10------10-------10-----10------10---|
||D|------10-------------------10--------------10---------------10-------------|
||A|---------------------------------------------------------------------------|
||E|---------------------------------------------------------------------------|
||
||Gtr2
||
||e|---------------------------------------------------------------------------|
||B|----------------------------------------------------------------/6-6-5-----|
||G|-----------------------------------------------------------------------7--5|
||D|---------------------------------------------------------------------------|
||A|---------------------------------------------------------------------------|
||E|---------------------------------------------------------------------------|

Going forth pretending destination is at hand.

||Gtr1   Csus4
||
||e|----------------8-----------------8----------------8--------------8--------|
||B|-------------8----8-------------8---8------------8---8----------8---8------|
||G|---------10---------10-------10-------10------10-------10-----10------10---|
||D|------10-------------------10--------------10---------------10-------------|
||A|---------------------------------------------------------------------------|
||E|---------------------------------------------------------------------------|
||
||Gtr2
||
||e|---------------------------------------------------------------------------|
||B|-------------------------------------------------------------/6-6-5h6p5----|
||G|-----------------------------------------------------------------------7--5|
||D|---------------------------------------------------------------------------|
||A|---------------------------------------------------------------------------|
||E|---------------------------------------------------------------------------|

When she's crying just a little, just for me.

||Gtr1   Csus4
||
||e|----------------8-----------------8----------------8--------------8--------|
||B|-------------8----8-------------8---8------------8---8----------8---8------|
||G|---------10---------10-------10-------10------10-------10-----10------10---|
||D|------10-------------------10--------------10---------------10-------------|
||A|---------------------------------------------------------------------------|
||E|---------------------------------------------------------------------------|
||
||Gtr2
||
||e|---------------------------------------------------------------------------|
||B|---------------------------------------------------------------------------|
||G|---------------------------------------------------------------------------|
||D|---------------------------------------------------------------------------|
||A|----------------------------------------------------------------8-7--------|
||E|--------------------------------------------------------------------10-8-5-|

I've seen them set off to the promised land.

||Gtr1   Csus4
||
||e|----------------8-----------------8----------------8--------------8--------|
||B|-------------8----8-------------8---8------------8---8----------8---8------|
||G|---------10---------10-------10-------10------10-------10-----10------10---|
||D|------10-------------------10--------------10---------------10-------------|
||A|---------------------------------------------------------------------------|
||E|---------------------------------------------------------------------------|
||
||Gtr2
||
||e|---------------------------------------------------------------------------|
||B|---------------------------------------------------------------------------|
||G|---------------------------------------------------------------------------|
||D|---------------------------------------------------------------------------|
||A|---------------------------------------------------------------------------|
||E|---------------------------------------------------------------------------|

Escaping from the hurtings they don't understand.

||Gtr1   Csus4
||
||e|----------------8-----------------8----------------8--------------8--------|
||B|-------------8----8-------------8---8------------8---8----------8---8------|
||G|---------10---------10-------10-------10------10-------10-----10------10---|
||D|------10-------------------10--------------10---------------10-------------|
||A|---------------------------------------------------------------------------|
||E|---------------------------------------------------------------------------|
||
||Gtr2
||
||e|---------------------------------------------------------8--10-10/12--10--8|
||B|---------------------------------------------------------------------------|
||G|---------------------------------------------------------------------------|
||D|---------------------------------------------------------------------------|
||A|---------------------------------------------------------------------------|
||E|---------------------------------------------------------------------------|

A sense of satisfaction on account of pristine tears.

||Gtr1   Csus4
||
||e|----------------8-----------------8----------------8--------------8--------|
||B|-------------8----8-------------8---8------------8---8----------8---8------|
||G|---------10---------10-------10-------10------10-------10-----10------10---|
||D|------10-------------------10--------------10---------------10-------------|
||A|---------------------------------------------------------------------------|
||E|---------------------------------------------------------------------------|
||
||Gtr2
||
||e|-------------------------------------------------------------/8-/8--5------|
||B|-----------------------------------------------------------------------8-5-|
||G|---------------------------------------------------------------------------|
||D|---------------------------------------------------------------------------|
||A|---------------------------------------------------------------------------|
||E|---------------------------------------------------------------------------|

She's crying just a little more, just like you.

||Gtr1   Csus4
||
||e|---------------8-----------------8----------------8-------8--8--8--8--8--8-|
||B|------------8----8-------------8---8------------8---8-----8--8--8--8--8--8-|
||G|--------10---------10-------10-------10------10-------10-10-10-10-10-10-10-|
||D|-----10-------------------10--------------10-------------10-10-10-10-10-10-|
||A|---------------------------------------------------------------------------|
||E|---------------------------------------------------------------------------|
||
||Gtr2
||
||e|---------------------------------------------------------------------------|
||B|---------------------------------------------------------------------------|
||G|---------------------------------------------------------------------------|
||D|---------------------------------------------------------------------------|
||A|----------------------------------------------------------3--3--3--3--3--3-|
||E|----------------------------------------------------------1--1--1--1--1--1-|

Chorus
 
F              Bb  Dm              C
Why don't you cry, cry a little over me?

F              Bb            Dm             C
Why don't you lie? Can't you tell me that I am

F        Bb             Dm             C
hard to deny? Can't she see what I am going through?

Dm     Bb             C
Cry just a little for me.

Dm     Bb             C
Oh girl, a little for me

Verse

Afraid to give away what you keep inside.

       Csus4

e|----------------8-----------------8----------------8--------------8--------|
B|-------------8----8-------------8---8------------8---8----------8---8------|
G|---------10---------10-------10-------10------10-------10-----10------10---|
D|------10-------------------10--------------10---------------10-------------|
A|---------------------------------------------------------------------------|
E|---------------------------------------------------------------------------|

There's a ghost in your mirror every lonesome night.

       Csus4

e|----------------8-----------------8----------------8--------------8--------|
B|-------------8----8-------------8---8------------8---8----------8---8------|
G|---------10---------10-------10-------10------10-------10-----10------10---|
D|------10-------------------10--------------10---------------10-------------|
A|---------------------------------------------------------------------------|
E|---------------------------------------------------------------------------|

Don't you wonder who'll be there, when you awake?

       Csus4

e|----------------8-----------------8----------------8-----------------------|
B|-------------8----8-------------8---8------------8---8---------------------|
G|---------10---------10-------10-------10------10-------10------------------|
D|------10-------------------10--------------10------------------------------|
A|-----------------------------------------------------------3-3-3-3-3-3-----|
E|-----------------------------------------------------------1-1-1-1-1-1-----|

Chorus

F              Bb  Dm              C
Why don't you cry, cry a little over me?

F              Bb            Dm             C
Why don't you lie? Can't you tell me that I am

F        Bb             Dm             C
hard to deny? Can't she see what I am going through?

Dm     Bb             C
Cry just a little for me.

Dm     Bb             C
Oh girl, a little for me

Solo

I couldn't transcribe solo, Sorry

Acoustic Solo

e|---10---12---13------------------------------10----------------------------|
B|-----------------13-------10--------------------------13-------------------|
G|-----------------------------12-10-----------------------------------------|
D|---------------------------------------------------------------------------|
A|---------------------------------------------------------------------------|
E|---------------------------------------------------------------------------|

e|----10---12--13-----------------------------10-----------------------------|
B|-----------------13---11---10-------------------13-------------------------|
G|--------------------------------10-----------------------------------------|
D|---------------------------------------------------------------------------|
A|---------------------------------------------------------3-3-3-3-3-3-------|
E|---------------------------------------------------------1-1-1-1-1-1-------|

Chorus

G               C  Em              D
Why don't you cry, cry a little over me?

G                C           Em              D
Why don't you lie? Can't you tell me that I am

G           C           Em              D
hard to deny? Can't she see what I am going through?

Em       C            D
Cry just a little for me.

Em       C            D
Oh girl, a little for me


************************************

| /   slide up
| \   slide down
| h   hammer-on
| p   pull-off
| ~   vibrato
| +   harmonic
| x   Mute note
| b   Bend
| pb  Pre-bend
| br  Bend release
| pbr Pre-bend release
| brb Bend release bend

************************************
Tap to rate this tab
# A B C D E F G H I J K L M N O P Q R S T U V W X Y Z