Song name
# A B C D E F G H I J K L M N O P Q R S T U V W X Y Z

Avenged Sevenfold - Mia tab

-------------------------------------------------------------------------------
			     M.I.A - Avenged Sevenfold
-------------------------------------------------------------------------------
Tabbed by: Vulcanized
Email:theonesyn@live.com

Tuning:Standard

***This solo starts at about 8:03***
                              ~~         ~~      ~~~~~
e|--6-5----------------------------------------------------------------------|
B|------8--6--5--6--8/10/8---6------------------6--------6---8---5--6--5-----|
G|--------------------------------7----5h7-------------7---7-----------------|
D|---------------------------------------------------------------------------|
A|---------------------------------------------------------------------------|
E|---------------------------------------------------------------------------|
               ~~~~~
e|---------------------------------------------------------------------------|
B|---------------------------------------------------------------------------|
G|--5-/-7-----5-----------3--2---2-----------2h3p2-----2--3------------------|
D|-----------------------------5----2--3--5----------5-----------------------|
A|---------------------------------------------------------------------------|
E|---------------------------------------------------------------------------|
                                                     ~~~
e|---------------------------------------------------------------------------|
B|-------3----3-/-5---6--------3----5---6-----6-/-8--5--------5--6--8--------|
G|--2----------------------3-------------------------------------------------|
D|---------------------------------------------------------------------------|
A|---------------------------------------------------------------------------|
E|---------------------------------------------------------------------------|
                                    ~~~~~  ~~~
e|--5/6---5---6p5-----------------------------------5------------------------|
B|----------------8--6--8/10--8--6--8-----6-----------5----------------------|
G|--------------------------------------------5h7-------7-5-7b---------------|
D|---------------------------------------------------------------------------|
A|---------------------------------------------------------------------------|
E|---------------------------------------------------------------------------|

e|-------8--10--8-----------------------------------------------------10/12--|
B|-----9----------9---------------------------------------------10-13--------|
G|--10-------------10p7---10b-----13-12-10-13p12-10-12-13p12p10--------------|
D|---------------------------------------------------------------------------|
A|---------------------------------------------------------------------------|
E|---------------------------------------------------------------------------|
                                       ~~~~
e|--10-12-13-12-10----10-12--10----------------------------------------------|
B|-----------------13-----------13-10-13b----13b--13--10---------------------|
G|-------------------------------------------------------12-10-14p12p10---10-|
D|----------------------------------------------------------------------12---|
A|---------------------------------------------------------------------------|
E|---------------------------------------------------------------------------|
                 ~~~~~~~~~~~~~~~~~~~~~~~~~~~
e|---------------------------------------------------------------------------|
B|---------------------------------------------------------------------------|
G|---12b-------10------------------------------------------------------------|
D|---------------------------------------------------------------------------|
A|---------------------------------------------------------------------------|
E|---------------------------------------------------------------------------|
Tap to rate this tab
 
# A B C D E F G H I J K L M N O P Q R S T U V W X Y Z