Song name
# A B C D E F G H I J K L M N O P Q R S T U V W X Y Z

Avenged Sevenfold - Buried Alive tab

Tuning (this tab): Drop D Tab difficulty: intermediate

Avenged Sevenfold - Buried Alive
Tabbed by: awesti

THIS IS THE WHOLE SONG NOT JUST THE INTRO

INTRO
Guitar1 (clean)
e|-----8----10p8---8------8---5--3/5---------------------------------------|
B|-/10---10------10-----8---8----------5---6p5-5-------5-------------------|
G|-----------------------------------7---7----7------5---4-7\4-4h5p4-------|
D|-------------------------------------------------------------------5-----|
A|--0-------------------7------------5-----------3-2-0---------------------|
D|-------------------10----------------------------------------------------|

e|-----8----10p8---8------8---5--3/5---------------------------------------|
B|-/10---10------10-----8---8----------5---6p5-------8-10-9h10p9p7h9-10----|
G|-----------------------------------7---7-----7-9-10----------------------|
D|-------------------------------------------------------------------------|
A|--0-------------------7------------5---------5-7-8------7----------------|
D|-------------------10----------------------------------------------------|

e|----------------------------------------------------------------------5--|
B|-/10~-8-10--------------/10~-8-10----------/10~-8-10--------------7h8----|
G|-----------/7-5-7-5---------------/7-5h7-5-----------/7-5-7-5---------5--|
D|--------------------7-5---------------------------------------7-5--------|
A|-------------------------------------------------------------------------|
D|-------------------------------------------------------------------------|

e|-------------------------------------------------------------------------|
B|-5---5----/10~-8-10-------------/10~-8-10----------/10~-8-10-------------|
G|--5---5-------------7-5-7-5---------------/7-5h6-5-----------7-5-7-5-----|
D|---5---5--------------------7-5--------------------------------------7-5-|
A|-------------------------------------------------------------------------|
D|-------------------------------------------------------------------------|

e|-----5-----------------------5*-------------5*---------------------------|
B|-7h8----5---5----------5-5------------5-5--------------------------------|
G|-----5---5---5---5~-4~----------5~-4~------------------------------------|
D|----------5---5------------7--------------7----3*------------------------|
A|-------------------------------------------------------------------------|
D|-------------------------------------------------------------------------|


INTRO HARMONY 0:51
Guitar1
e|-------------------------------------------------------------------------|
B|-13-13-13/15-13\8-8-8/10~10-10--\9~--13-13-13/15-13\8-8/10-10-12-13-12-12|
G|-------------------------------9-----------------------------------------|
D|-------------------------------------------------------------------------|
A|-------------------------------------------------------------------------|
D|-------------------------------------------------------------------------|

e|---------------------------------------/17-15----------------------------|
B|-12-13-15--13-13-13-12-13----13-12-13---------18-17--/13-h14p13\9--------|
G|----------------------------12-------------------------------------------|
D|-------------------------------------------------------------------------|
A|-------------------------------------------------------------------------|
D|-------------------------------------------------------------------------|

e|-------------------------------------------------------------------------|
B|-/13-13-13-12-13----13-12-13/15-17-15-12b13r12~--12h13p12p10---------\13~|
G|-----------------12------------------------------------------13-12-10----|
D|-------------------------------------------------------------------------|
A|-------------------------------------------------------------------------|
D|-------------------------------------------------------------------------|

Guitar2
e|-------------------------------------------------------------------------|
B|-10~-10-10-12-8-------------------------10~-10-10-12-8---------------10-9|
G|----------------9-9-9-10~-10-10-----/9~----------------9-9/10-10-10-12---|
D|---------------------------------10--------------------------------------|
A|-------------------------------------------------------------------------|
D|-------------------------------------------------------------------------|

e|------------------12-10-12----12-10-12-12/13-12-10----12h13p12\7~--------|
B|-9-9-10-12--10-10----------13----------------------13--------------------|
G|-------------------------------------------------------------------------|
D|-------------------------------------------------------------------------|
A|-------------------------------------------------------------------------|
D|-------------------------------------------------------------------------|

e|-------12-10-12----12-10-12-/13-15\13------------------------------------|
B|-10-10----------13--------------------15b17r15~--15h16p15p13-------------|
G|-------------------------------------------------------------15-14-15/14~|
D|-------------------------------------------------------------------------|
A|-------------------------------------------------------------------------|
D|-------------------------------------------------------------------------|

VERSE 1:19
Clean guitar
e|-------0----------------------------0---------------------0------|
B|-----1---1------------3-----------1---1-----1-------1---1---1----|
G|---2-------2--------0---0-------2-------2---------0---0----------|
D|------------------2-------0-2-3-----------2-----2----------------|
A|-0-----------2--3-----------------------------3------------------| x4
D|-----------------------------------------------------------------|

VERSE HARMONY 1:46
Guitar1
e|-/13--12--10--------10-12-/13--12-/16~-17-17-----------------------------|
B|-------------/12-13------------------------------------------------------|
G|-------------------------------------------------------------------------|
D|-------------------------------------------------------------------------|
A|-------------------------------------------------------------------------|
D|-------------------------------------------------------------------------|

Guitar2
e|-------------------------------------------------------------------------|
B|-/15--13--12--/8-10-12-13-/15--13-/18~-20-20-----------------------------|
G|-------------------------------------------------------------------------|
D|-------------------------------------------------------------------------|
A|-------------------------------------------------------------------------|
D|-------------------------------------------------------------------------|
                             /\
PLAY VERSE GUITAR UNDER THIS ||


CHORUS 2:00

e|-------------------------------------------------------------------------|
B|-------------------------------------------------------------------------|
G|-------------------------------------------------------------------------|
D|-----------5--5-5-5--6-6-6-7-9------------5--5-5-5--6-6-6-7-9-9xx7xx10xx9|
A|-7--7-7--2-3--3-3-3--2-2-2-3-5--7--7-7--2-3--3-3-3--2-2-2-3-5-7xx5xx-8xx7|
D|-7--7-7--2-3--3-3-3--2-2-2-3-5--7--7-7--2-3--3-3-3--2-2-2-3-5------------|

e|-------------------------------------------------------------------------|
B|-------------------------------------------------------------------------|
G|-------------------------------------------------------------------------|
D|-----------5--5-5-5--6-6-6-7-9------------5--5-5-5--6-6-6-7-9-xx-9-------|
A|-7--7-7--2-3--3-3-3--2-2-2-3-5--7--7-7--2-3--3-3-3--2-2-2-3-5-xx-7-------|
D|-7--7-7--2-3--3-3-3--2-2-2-3-5--7--7-7--2-3--3-3-3--2-2-2-3-5------------|

e|----------------------------|
B|----------------------------|
G|----------------------------|
D|-xx-9------xx9xx7xx10xx9xx--|
A|-xx-7------xx7xx5xx-8xx7xx--|
D|----------------------------|


BRIDGE HARMONY 2:30

Guitar1
e|---------------------------------------------------------------------------|
B|-13-13-13/15-13\8-8-8/10~10-10--\9~--13-13-13/15-13\8-8/10-10-12-13-12-12--|
G|-------------------------------9-------------------------------------------|
D|---------------------------------------------------------------------------|
A|---------------------------------------------------------------------------|
D|---------------------------------------------------------------------------|

e|---------------------------------------------------------------------------|
B|-12-15-13~-----------------------------------------------------------------|
G|---------------------------------------------------------------------------|
D|---------------------------------------------------------------------------|
A|---------------------------------------------------------------------------|
D|---------------------------------------------------------------------------|

Guitar2
e|---------------------------------------------------------------------------|
B|-10~-10-10-12-8-------------------------10~-10-10-12-8-----------------10-9|
G|----------------9-9-9-10~-10-10-----/9~----------------9-9/10-10-10-12-----|
D|---------------------------------10----------------------------------------|
A|---------------------------------------------------------------------------|
D|---------------------------------------------------------------------------|

e|---------------------------------------------------------------------------|
B|-9-9-10-12-10~-------------------------------------------------------------|
G|---------------------------------------------------------------------------|
D|---------------------------------------------------------------------------|
A|---------------------------------------------------------------------------|
D|---------------------------------------------------------------------------|

REPEAT VERSE 2:43
REPEAT BRIDGE HARMONY 3:10
REPEAT CHORUS 3:24


RHYTHM SOLO INTRO
(played at end of chorus)

e|---------------------------------------------------------------------------|
B|---------------------------------------------------------------------------|
G|---------------------------------------------------------------------------|
D|-xx-9------xx-9---xx9xx7xx10xx9--------------------------------------------|
A|-xx-7------xx-7---xx7xx5xx-8xx7--------------------------------------------|
D|---------------------------------------------------------------------------|


SOLO SECTION: 4:00
(SEE UNDER SOLO FOR WHAT RHYTHM IS PLAYING)

PRE-SOLO HARMONIES
Guitar1
e|--------------------------------------------------------------|
B|-13-13-13-13-13/15-17\13-13\10/15\10-10\8-12-12-12-13/15~-----|
G|--------------------------------------------------------------|
D|--------------------------------------------------------------| x2
A|--------------------------------------------------------------|
D|--------------------------------------------------------------|

Guitar2
e|--------------------------------------------------------------|
B|-10-10-10-10/12-13\-8-8\5-5/10\6-6-5-8-8-8/10/12~-------------|
G|--------------------------------------------------------------|
D|--------------------------------------------------------------| x2
A|--------------------------------------------------------------|
D|--------------------------------------------------------------|


Guitar1
e|-17p12---------15p12---------17p13---------15p12---------17p12-----------|
B|------h13--X5-------h13--X5-------h15--X5-------h13--X5-------h13--X5----|
G|-------------------------------------------------------------------------|
D|-------------------------------------------------------------------------|
A|-------------------------------------------------------------------------|
D|-------------------------------------------------------------------------|

e|-15p12---------17p13------1617161516171615-19201918----------------------|
B|------h13--X5-------h15--------------------------------------13-14-15----|
G|----------------------------------------------------13-14-16-------------|
D|-------------------------------------------------------------------------|
A|-------------------------------------------------------------------------|
D|-------------------------------------------------------------------------|

SOLO 4:27

e|---------------------12121212/171717171717171717----------------------17-|
B|-10101010101313131313----------------------------1313131313/1818181818---|
G|-------------------------------------------------------------------------|
D|-------------------------------------------------------------------------|
A|-------------------------------------------------------------------------|
D|-------------------------------------------------------------------------|

e|171717161616161616--------------------12121212/1717171717/19191919/202020|
B|------------------10101010101313131313-----------------------------------|
G|-------------------------------------------------------------------------|
D|-------------------------------------------------------------------------|
A|-------------------------------------------------------------------------|
D|-------------------------------------------------------------------------|

e|2020\19191919\1111111111-------------------------------------------------|
B|-------------------------------------------------------------------------|
G|-------------------------------------------------------------------------|
D|-------------------------------------------------------------------------|
A|-------------------------------------------------------------------------|
D|-------------------------------------------------------------------------|

e|-17-12--------12-19-12-17-12--------12-19-12-17--------12-17-12-16-12----|
B|------13-12-13--------------13-12-13-----------13-12-13--------------13--|
G|-------------------------------------------------------------------------|
D|-------------------------------------------------------------------------|
A|-------------------------------------------------------------------------|
D|-------------------------------------------------------------------------|

e|------12-16-12---------------------12121212/171717\1212121313131111111212|
B|-12-13---------10101010101313131313--------------------------------------|
G|-------------------------------------------------------------------------|
D|-------------------------------------------------------------------------|
A|-------------------------------------------------------------------------|
D|-------------------------------------------------------------------------|

e|-------------------------------------------------------------------------|
B|12121212121213131313-----------------------------------------------------|
G|--------------------1313131313-14~---------------------------------------|
D|-------------------------------------------------------------------------|
A|-------------------------------------------------------------------------|
D|-------------------------------------------------------------------------|

e|--------------------------------------------------------12-15b17~--------|
B|---------------------13-15-15b17~--------------13-14-15------------------|
G|---------------12-14---------------------13-14---------------------------|
D|---------12-14---------------------13-14---------------------------------|
A|---12-15-----------------------------------------------------------------|
D|-------------------------------------------------------------------------|

e|----------------14-15-17-19b20r19-17-15b17r15-12-------------------------|
B|-------15-16-17----------------------------------15-13~-13-15-13~--------|
G|-14-17-------------------------------------------------------------------|
D|-------------------------------------------------------------------------|
A|-------------------------------------------------------------------------|
D|-------------------------------------------------------------------------|

e|-----------12-12--------------------12-13--------------------13-16b17~~~\|
B|13h14h15h16-----12----------------12-----13----------------13------------|
G|------------------13------------13---------14------------14--------------|
D|--------------------14--------14-------------15--------15----------------|
A|----------------------15-12-15-----------------17-13-17------------------|
D|-------------------------------------------------------------------------|


RHYTHM DURING SOLO 4:00
e|-------------------------------------------------------------------------|
B|-------------------------------------------------------------------------|
G|-------------------------------------------------------------------------|
D|-2-22-2-22-2-xx-5-55-5-55-5-5-7-77-7-77-7-7------------------------------|
A|-0-00-0-00-0-xx-3-33-3-33-3-3-5-55-5-55-5-5-5-55-55----------------------|
D|--------------------------------------------5-55-55-7-9~-----------------|
     **   **        **   **   *   **   **   *   **

e|-------------------------------------------------------------------------|
B|-------------------------------------------------------------------------|
G|-------------------------------------------------------------------------|
D|-2-22-2-22-2-xx-5-55-5-55-5-5-7-77-7-77-7-xx9xx7xx10xx9------------------|
A|-0-00-0-00-0-xx-3-33-3-33-3-3-5-55-5-55-5-xx7xx5xx-8xx7------------------|
D|-------------------------------------------------------------------------| x2
     **   **        **   **   *   **   **

4:28
e|----------------------------------------|
B|----------------------------------------|
G|----------------------------------------|
D|----------------------------------------|
A|-7-7777-7-7777-2-22-3-3333-3-3333-6-66--| x4
D|-7-7777-7-7777-2-22-3-3333-3-3333-6-66--|
     ****   ****   **   ****   ****   **

4:41
e|-------------------------------------------------------------------------|
B|-------------------------------------------------------------------------|
G|-------------------------------------------------------------------------|
D|----------------------------------------------------------4-xx-5---------|
A|-7-7777-7-7777-7-77-6-6666-6-6666-6-66-5-5555-5-5555-5-55-4-xx-3---------|
D|-7-7777-7-7777-7-77-6-6666-6-6666-6-66-5-5555-5-5555-5-55-4-xx-3---------|
     ****   ****   **   ****   ****   **   ****   ****   **

e|-------------------------------------------------------------------------|
B|-------------------------------------------------------------------------|
G|-------------------------------------------------------------------------|
D|-xx9xx7xx10xx9xx---------------------------------------------------------|
A|-xx7xx5xx-8xx7xx-7-------------------------------------------------------|
D|-----------------7-------------------------------------------------------|

BREAKDOWN 4:59

e|-------------------------------------------------------------------------|
B|-------------------------------------------------------------------------|
G|-------------------------------------------------------------------------|
D|-------------------------------------------------------------------------|
A|-2-22-2-22-2-2-2-22-2-22-2-2-2-22-2-22-2-2-2-22-2-22-2-2-----------------|
D|-2-22-2-22-2-2-2-22-2-22-2-2-2-22-2-22-2-2-2-22-2-22-2-2-----------------|
     **   **   *   **   **   *   **   **   *   **   **   *

  5:05
e|--------------------------------------------------------------|
B|--------------------------------------------------------------|
G|--------------------------------------------------------------|
D|--------------------------------------------------------------|
A|-2-22-2-22-2-2-2-22-2-22-2-2-2-22-2-22-2-2-555-44-3-----------| X3
D|-2-22-2-22-2-2-2-22-2-22-2-2-2-22-2-22-2-2-555-44-3-----------|
     **   **   *   **   **   *   **   **   *


Guitar1  5:26
e|-------------------------------------------------------------------------|
B|-------------------------------------------------------------------------|
G|-------------------------------------------------------------------------|
D|-------------------------------------------------------------------------|
A|-------------------------------------------------------------------------|
D|-6-6-6-7~/9~-7-7-7-9~-10~---6-6-6-7~/9~-7-7-7-9~-10~---------------------|

Guitar2
e|-------------------------------------------------------------------------|
B|-------------------------------------------------------------------------|
G|-------------------------------------------------------------------------|
D|-------------------------------------------------------------------------|
A|-2-2-2-3~/5~-3-3-3-5~-7~---2-2-2-3~/5~-3-3-3-5~-7~-----------------------|
D|-------------------------------------------------------------------------|


5:33
e|--------------------------------------------------------------|
B|--------------------------------------------------------------|
G|--------------------------------------------------------------|
D|--------------------------------------------------------------|
A|-2-22-2-22-2-2-2-22-2-22-2-2-2-22-2-22-2-2-555-44-3-----------| X2
D|-2-22-2-22-2-2-2-22-2-22-2-2-2-22-2-22-2-2-555-44-3-----------|
     **   **   *   **   **   *   **   **   *

Guitar1  5:46
e|-------------------------------------------------------------------------|
B|-------------------------------------------------------------------------|
G|-------------------------------------------------------------------------|
D|-------------------------------------------------------------------------|
A|-------------------------------------------------------------------------|
D|-6-6-6-7~/9~-7-7-7-9~-10~---6-6-6-7~/9~-7-7-7-9~-10~---------------------|

Guitar2
e|-------------------------------------------------------------------------|
B|-------------------------------------------------------------------------|
G|-------------------------------------------------------------------------|
D|-------------------------------------------------------------------------|
A|-2-2-2-3~/5~-3-3-3-5~-7~---2-2-2-3~/5~-3-3-3-5~-7~-----------------------|
D|-------------------------------------------------------------------------|


SOLO 5:53 (Rhythm underneath)
Guitar1
e|-------------------------------------------------------------------------|
B|-15b17~--15b17r15-12-----------------------------------------------12-15-|
G|---------------------14-14b16r14-12h14-14b16-12~-------------12-13-------|
D|-------------------------------------------------14\---12-14-------------|
A|-------------------------------------------------------------------------|
D|-------------------------------------------------------------------------|

e|-12-17-15-12----------------16-13-12----------16-13-12-------------------|
B|-------------17-15-15-12-12----------16-13-12----------16-13-12-15b17~~--|
G|-------------------------------------------------------------------------|
D|-------------------------------------------------------------------------|
A|-------------------------------------------------------------------------|
D|-------------------------------------------------------------------------|

e|--------18-17-----17-15~----------------------------------18-17-----17-15|
B|-17--17-------17------------------------------------17--17-----17--------|
G|---16-----------16--------15-13-15-13-----15-14-13~---16---------16------|
D|--------------------------------------14-13------------------------------|
A|-------------------------------------------------------------------------|
D|-------------------------------------------------------------------------|

e|-18b20-18b20~~-----------------------------------------------------------|
B|-------------------------------------------------------------------------|
G|-------------------------------------------------------------------------|
D|-------------------------------------------------------------------------|
A|-------------------------------------------------------------------------|
D|-------------------------------------------------------------------------|

Guitar2
e|----------------------------------------------------------------------|
B|----------------------------------------------------------------------|
G|----------------------------------------------------------------------|
D|----------------------------------------------------------------------|
A|-2-22-2-22-2-2-2-22-2-22-2-2-2-22-2-22-2-2-2-22-2-22-2-2--------------| X2
D|-2-22-2-22-2-2-2-22-2-22-2-2-2-22-2-22-2-2-2-22-2-22-2-2--------------|
     **   **   *   **   **   *   **   **   *   **   **   *

6:07
e|--------------------------------|
B|--------------------------------|
G|--------------------------------|
D|--------------------------------|
A|-2--5-4--3-2-222-222-222--------| X4
D|-2--5-4--3-2-222-222-222--------|

e|--------------------------------|
B|--------------------------------|
G|--------------------------------|
D|--------------------------------|
A|-2--5-4--3-2-2222-2222-2222-----| X4
D|-2--5-4--3-2-2222-2222-2222-----|

e|---------------------------------------------|
B|---------------------------------------------|
G|---------------------------------------------|
D|---------------------------------------------|
A|-2--5-4--3-2-222-222-222--2--5-4--3-2--------|
D|-2--5-4--3-2-222-222-222--2--5-4--3-2--------|
Tap to rate this tab
 
# A B C D E F G H I J K L M N O P Q R S T U V W X Y Z