Avenged Sevenfold - God Hates Us tab

-----------------------------------------------------------------------------
			     God hates us  Avenged Sevenfold
-----------------------------------------------------------------------------
Tabbed by:Alex Yeung
Email:alexyeung330@hotmail.com

Tuning:Dropped D

e|------------------------------------------------------------|
B|--10-----10----8---8-----6---6---5----5---------------------|
G|----10----10----9----9----7---7----7----7-------------------|x4
D|------12---12----10---10---7---7-----8----8-----------------|
A|------------------------------------------------------------|
D|------------------------------------------------------------|

e|-------------------------------------------|
B|10-13-8-13-8-10-8--------------------------|
G|------------------10-7-9-7-----------------|
D|---------------------------8---------------|
A|-------------------------------------------|
D|-------------------------------------------|

e|-----------------------------------------------------------------17-20------|
B|---------------------------------------------------17-20-18-17-18-----------|
G|------------------12-----------14-12-10----18-18-19-------------------------|
D|-11---11---12--14-----15-14-15 ---------------------------------------------|
A|----------------------------------------------------------------------------|
D|----------------------------------------------------------------------------|

e|-------------------------------------------------|
B|-------------------------------------------------|
G|-------------------------------------------------|
D|-7-----------7-------5-----8-7-------------------| x6
A|-5-----------5-0---0-3-0-0-6-5-------------------|
D|--0-0-0-0-0-0---0-0----0-0-----------------------|

e|-----------------------------------------------|
B|-----------------------------------------------|
G|-----------------------------------------------|
D|-7-----------7-----5-----------8-8-------------|
A|-5-----------5-0-0-3-0-0-1-1-1-6-6-------------|
D|--0-0-0-0-0-0--00----0-0-1-1-1-----------------|

e|--------------------------------------------------------------|
B|--------------------------------------------------------------|
G|---7-7-5--8------10-10-10--8-7--------------------------------|
D|--------------------------------------------------------------|
A|-0-5-5-3--6---0--8--8--8---6-5--------------------------------|
D|-0------------0-----------------------------------------------|

e|----------------------------------------------------------|
B|----------------------------------------------------------|
G|---7-7-5-8-------10-10-10--8-7 ---------------------------|
D|----------------------------------------------------------|
A|-0-5-5-3-6----0--8--8--8---6-5---1-1-1--1-----------------|
D|-0------------0------------------1-1-1--1-----------------|

e|--------------------------------------------------------|
B|--------------------------------------------------------|
G|--------------------------------------------------------|
D|-----------------------------------------------5-6-5----|
A|-5---3---6----5----3----3-5---5-----3-----5-------------|
D|--0-0-0-0-0-0--0-0---0-0--------0-0---0-0---0-0---------|

e|--------------------------------------------------------|
B|--------------------------------------------------------|
G|--------------------------------------------------------|
D|--------------------------------------------------------|
A|-5---3---6----5----3----3-5---5-----3--3--6--9----------|
D|--0-0-0-0-0-0--0-0---0-0--------0-0----3--6--9----------|

e|----------------------------------|
B|----------------------------------|
G|----------------------------------|
D|----------------------------------|
A|-0--6--0--9--6--0--6--0-9---------|
D|-0--6--0--9--6--0--6--0-9---------|


SOLO
e|-----------15---------15---------18--------18----------------------------|
B|-15-18-15--18-15-18---18--15-18--15-15-18--15---18---18---18-------------|
G|---------------------------------------------------16---16---16----------|
D|-------------------------------------------------------------------------|
A|-------------------------------------------------------------------------|
D|-------------------------------------------------------------------------|


Sorry i just cant figure out the rest of the SOLO lol so someone will have to do it XD
Tap to rate this tab
 
# A B C D E F G H I J K L M N O P Q R S T U V W X Y Z