Avenged Sevenfold - Natural Born Killer tab

 
I haven't put the PMs in as it should be obvious where they are.

Please rate =)

Tuning: Drop D

Intro

gtr.1
e|---------------------------------------------------------||
B|---------------------------------------------------------||
G|---------------------------------------------------------||
D|----------------------------------------------8--11------||
A|----------------------------------------------8--11------||
E|----0-0-0-0-12-0-0-11-0-0-12-0-0-8-0-0-7-0-0--8--11------||
                                                            |
gtr.2                                                       |      x4
e|---------------------------------------------------------||
B|---------------------------------------------------------||
G|---------------------------------------------------------||
D|----------------------------------------------8--11------||
A|----------------------------------------------8--11------||
E|------(pickslide 4th time)--------------------8--11------||


gtr.1+2
e|---------------------------------------------------------|
B|---------------------------------------------------------|
G|---------------------------------------------------------|
D|----------------------------------------------8--11------|   x4
A|----------------------------------------------8--11------|
E|----0-0-0-0-12-0-0-11-0-0-12-0-0-8-0-0-7-0-0--8--11------|


gtr.1
e|-----------------------------------------------------------------||
B|-----------------------------------------------------------------||
G|-----------------------------------------------------------------||
D|-----------------------------------------------------------------||
A|-----------------------------------------------------------------||
E|1-1-1-1-1-1-1-1-1-1-1-1-1-1-1-1-1-1-1-1-1-1-1-1-1-1-1-1-1-1-1-1-1||
                                                                    |
gtr.2                                                               |
e|-15----------181615------15--------------------------------------||
B|---181615----------181615--181615----1615----------------15--1516||
G|---------1715--------------------1715----171514----141517--17----||
D|-----------------------------------------------1717--------------||
A|-----------------------------------------------------------------||
E|-----------------------------------------------------------------||

gtr.1
e|--------------------------------------------------------||
B|--------------------------------------------------------||
G|--------------------------------------------------------||
D|--------------------------------------------------------||
A|--------------------------------------------------------||
E|1-1-1-1-1-1-1-1-1-1-1-1-1-1-1-1-1-1-1-1-1-1-1-1-1-------||
                                                           |
gtr.2                                                      |
e|-15----------181615------15-----------------------------||
B|---181615----------181615--181615----1615---------------||
G|---------1715--------------------1715----171514---------||
D|-----------------------------------------------171517---||
A|--------------------------------------------------------||
E|--------------------------------------------------------||


Main Riff

e|-------------------------------------------------------------------|
B|-------------------------------------------------------------------|
G|-------------------------------------------------------------------|
D|--0----------------------------------------------------------------|   x2
A|--0----------------------------------------------------------------|
D|--0--0-0-0-0-3p0-5p0-7p0-6p0-5p0-3p0-0-0-0-0-0-0--0000000000000000-| 


Verse

e|----------------------------------------------------------------------|
B|----------------------------------------------------------------------|
G|----------------------------------------------------------------------|
D|--0-----------------------8/11---0----------------------8/11----------| x2
A|--0-----------------------8/11---0----------------------8/11----------|
D|--0--0-0-0-0-0-0-0-0-0-0--8/11---0--0-0-0-0-0-0-0-0-0-0-8/11----------| 


e|-------------------------------------------------------------------|
B|-------------------------------------------------------------------|
G|-------------------------------------------------------------------|
D|--0----------------------------------------------------------------|
A|--0----------------------------------------------------------------|
D|--0--0-0-0-0-0-0-0-0-0-0-0-0-0-5p0-7p0-8p0-7p0-5p0-7p0-5p0-7p0-----|


e|--------------------------------------------------------|
B|--------------------------------------------------------|
G|--------------------------------------------------------|
D|-8---------8---------8-----8---------8---------8--------|
A|-6-6-6-6-6-6-6-6-6-6-6-6-6-6-6-6-6-6-6-6-6-6-6-6-6-6----|
E|--------------------------------------------------------|

e|--------------------------------------------------------|
B|--------------------------------------------------------|
G|--------------------------------------------------------|
D|-8---------8---------8-----8-------------8-/-10---------|
A|-6-6-6-6-6-6-6-6-6-6-6-6-6-6-6-6-6-6-6-6-6-/-8----------|
E|--------------------------------------------------------|

e|-------------------------------------------------------------------|
B|-------------------------------------------------------------------|
G|-------------------------------------------------------------------|
D|--0----------------------------------------------------------------| 
A|--0----------------------------------------------------------------|
D|--0--0-0-0-0-3p0-5p0-7p0-6p0-5p0-3p0-0-0-0-0-0-0--0000000000000000-| 

e|--------------------------------------------------------|
B|--------------------------------------------------------|
G|--------------------------------------------------------|
D|-8---------8---------8-----8---------8---------8--------|
A|-6-6-6-6-6-6-6-6-6-6-6-6-6-6-6-6-6-6-6-6-6-6-6-6-6-6----|
E|--------------------------------------------------------|

e|--------------------------------------------------------|
B|--------------------------------------------------------|
G|--------------------------------------------------------|
D|-8---------8---------8-----8-------------8-/-10---------|
A|-6-6-6-6-6-6-6-6-6-6-6-6-6-6-6-6-6-6-6-6-6-/-8----------|
E|--------------------------------------------------------|

e|-------------------------------------------------------------------|
B|-------------------------------------------------------------------|
G|-------------------------------------------------------------------|
D|--0----------------------------------------------------------------| 
A|--0----------------------------------------------------------------|
D|--0--0-0-0-0-3p0-5p0-7p0-6p0-5p0-3p0-0-0-0-0-0-0--0000000000000000-| 


Pre-chorus

e|-----------------------------------------------------|
B|-11----------8----------11-----------13----14--------|
G|-10----------7----------10-----------12----13--------|
D|--8----------5----------8------------10----11--------|
A|--8----------5----------8------------10----11--------|
D|--8----------5----------8------------10----11--------|


Chorus

   Gtr.1
e|-------------------------------------------------------------||
B|-------------------------------------------------------------||
G|-------------------------------------------------------------||
D|-0---------7------------------8----------5-------------------||
A|-0---------7------------------8----------5-------------------||
E|-0---------7------------------8----------5-------------------||
                                                                |
   Gtr.2                                                        |    x4
e|-------------------------------------------------------------||
B|-------------------------------------------------------------||
G|-7----7----14----14----12-14-15----15----12----15------------||
D|-x----x----x-----x-----x--x--x-----x-----x-----x-------------||
A|-5----5----12----12----10-12-13----13----10----13------------||
E|-------------------------------------------------------------||

   Gtr.1
e|------------------------------------------------------------||
B|------------------------------------------------------------||
G|------------------------------------------------------------||
D|--8---8--------8---8--------8---8--------8---8-------8------||
A|--6---6--------6---6--------6---6--------6---6-------6------||
E|------------------------------------------------------------||
                                                               |
   Gtr.2                                                       | 
e|------------------------------------------------------------||
B|------------------------------------------------------------||
G|------------------------------------------------------------||
D|------------------------------------------------------------||
A|--14b--14b-----14b--14b-----14b--14b----14b--14b-----14b----||
E|--11---11------11---11------11---11-----11---11------11-----||


Main Riff
Verse
Pre-chorus
Chorus


Bridge

Gtr.1
e|-------------------------------------------|
B|-------------------------------------------|
G|-------------------------------------------|
D|--5-5--0-1-1--0--8-----8-7-5-----3-2-------|    x8
A|--5-5--0-1-1--0--66666-6-5-33333-1-0-------|
D|--5-5--0-1-1--0----------------------------| 


After 2 times

Gtr.2
e|----------------------------11/15-11-------|
B|----------------------11--11--------11-----|
G|----------------12--12--12------------12---|
D|-------12----12---12-----------------------|
A|-10-13----13-------------------------------|
E|-------------------------------------------|

e|-18-17-15--17-15---------------------------|
B|---------16-----16---15-16-15-13-16-15~----|
G|------------------15-----------------------|
D|-------------------------------------------|
A|-------------------------------------------|
E|-------------------------------------------|

e|----------------------------11/15-11-------|
B|----------------------11--11--------11-----|
G|----------------12--12--12------------12---|
D|-------12----12---12-----------------------|
A|-10-13----13-------------------------------|
E|-------------------------------------------|

e|-18b-1817-15-17-18--20b-20-18-17-18-17-15-15|
B|--------------------------------------------|
G|--------------------------------------------|
D|--------------------------------------------|
A|--------------------------------------------|
E|--------------------------------------------|

Presolo
e|---------------------------------------------------------|
B|---------------------------------------------------------|
G|---------------------------------------------------------|
D|--8--8--------8--8--------8--8--------8--8-------8---8---|
A|--6--6--------6--6--------6--6--------6--6-------6---6---|
E|---------------------------------------------------------|


e|---------------------------------------------------------|
B|---------------------------------------------------------|
G|---------------------------------------------------------|
D|--1----1----1----1----1----------------------------------|
A|--1----1----1----1----1----------------------------------|
E|--1----1----1----1----1----------------------------------|


Solo
e|----------------15----17----16----15----------------|
B|-/15~--15-18-15----15----15----15----18-15~---------|
G|----------------------------------------------------|
D|----------------------------------------------------|
A|----------------------------------------------------|
E|----------------------------------------------------|

             *
e|----------------------------------------------------|
B|--13-14-15-15b[17]-1513-----------------------------|
G|-----------------------151412-----------------------|
D|------------------------------15~-------------------|
A|----------------------------------------------------|
E|----------------------------------------------------|

e|----------------15----17----16----15----------------|
B|-/15~--15-18-15----15----15----15----18-15~---------|
G|----------------------------------------------------|
D|----------------------------------------------------|
A|----------------------------------------------------|
E|----------------------------------------------------|

e|----------------------------------------------------|
B|--13-14-15-15b[17]-15b[17]-15b[17]------------------|
G|----------------------------------------------------|
D|----------------------------------------------------|
A|----------------------------------------------------|
E|----------------------------------------------------|

e|----------------------------------------------------------|
B|-16-15h16p15-11h13p11-------------------------------------|
G|----------------------12----------------------------------|
D|-------------------------13121312-------------------------|
A|----------------------------------13/10-------------------|
E|----------------------------------------13-13-15-13-15/17-|

e|--------------------------------------------|
B|---------------------15-16-18-18b[20]-18p16-|
G|-------------14-15-17-----------------------|
D|--13-13-15-17-------------------------------|
A|13------------------------------------------|
E|--------------------------------------------|

e|----------------15----17----16----15----------------|
B|-/15~--15-18-15----15----15----15----18-15~---------|
G|----------------------------------------------------|
D|----------------------------------------------------|
A|----------------------------------------------------|
E|----------------------------------------------------|

e|--------------------1315b[17]----------------------|
B|----------------1315-------------------------------|
G|----------121415-----------------------------------|
D|---121415------------------------------------------|
A|---------------------------------------------------|
E|---------------------------------------------------|
                                             
                                            *
e|----------------------------------------------|
B|----------------------------------------------|
G|----14-15-----15-14-12-14-------15-14-15b-17b-|
D|-15-------/12-------------12-/12--------------|
A|----------------------------------------------|
E|----------------------------------------------|


                                        *
e|------------------------------------------------|
B|------------------------------------------------|
G|-----15-14-12b[14](12)-14~-----15-14-17b[19]-17~|
D|-/12-----------------------/12------------------|
A|------------------------------------------------|
E|------------------------------------------------|

e|---------------------------------------------------|
B|---------------------------------------------------|
G|-----15-14-12b[14](12)--------15-14--14-15-14-15/17|
D|-/12-------------------12~-/12-----15--------------|
A|---------------------------------------------------|
E|---------------------------------------------------|

e|--------------------------------------15141312-----------------1213141515b|
B|-----------------------------12131415---------15141312-12131415-----------|
G|----------1011121314-12131415---------------------------------------------|
D|1011121314----------------------------------------------------------------|
A|--------------------------------------------------------------------------|
E|--------------------------------------------------------------------------|


Verse x2

Outro

e|---------------------------------------------------------|
B|---------------------------------------------------------|
G|---------------------------------------------------------|
D|--8--8--------8--8--------8--8--------8--8-------8---8---|
A|--6--6--------6--6--------6--6--------6--6-------6---6---|
E|---------------------------------------------------------|


e|---------------------------------------------------------|
B|---------------------------------------------------------|
G|---------------------------------------------------------|
D|--1----1----1----1----1----------------------------------|
A|--1----1----1----1----1----------------------------------|
E|--1----1----1----1----1----------------------------------|




Tap to rate this tab
 
# A B C D E F G H I J K L M N O P Q R S T U V W X Y Z