Song name
# A B C D E F G H I J K L M N O P Q R S T U V W X Y Z

Avenged Sevenfold - Crimson Day tab

Crimson Day by Avenged Sevenfold Solo tab 

Tuning: Standard tuning 

Scale: E natural minor scale 


e|---------------------------------------12-14-15~~~-----------|
B|------------------------------12-13-15-----------------------|
G|---11-12-14-12-11----11-12-14--------------------------------|
D|------------------14-----------------------------------------|
A|-------------------------------------------------------------|
E|-------------------------------------------------------------|


e|--14^1/2--14~~~------12----12-14-15-12~~~--------------------|
B|------------------------15------------------15-15^full-------|
G|-------------------------------------------------------------|
D|-------------------------------------------------------------|
A|-------------------------------------------------------------|
E|-------------------------------------------------------------|


e|-------------------------------------------------------------|
B|--12-12h15-15--13-13--12-12----------------------------------|
G|------------------------------14-14----12-14^full------------|
D|-------------------------------------------------------------|
A|-------------------------------------------------------------|
E|-------------------------------------------------------------|



e|-------------------------------------------------------------|
B|--15---15---15-----------------------------------------------|
G|----14^--14^--14^14p12---------------------------------------|
D|-----------------------14p12h14~~~---------------------------|
A|-------------------------------------------------------------|
E|-------------------------------------------------------------|


e|-------------------------------------------------------------|
B|---------------------------------15-13-12~~~-----------------|
G|-----------------12-11---12-14-------------------------------|
D|--9-10---12/14-----------------------------------------------|
A|-------------------------------------------------------------|
E|-------------------------------------------------------------|


e|---------15--19-17-15----------------------------------------|
B|------17--------------17~~~----------------------------------|
G|----16-------------------------------------------------------|
D|--17---------------------------------------------------------|
A|-------------------------------------------------------------|
E|-------------------------------------------------------------|


e|-------------------------------------------------------------|
B|--15~~~--13-13--12-12----------------------------------------|
G|------------------------------14-14----12-14^full------------|
D|-------------------------------------------------------------|
A|-------------------------------------------------------------|
E|-------------------------------------------------------------|


e|-------------------------------------------------------------|
B|--15---15---15-----------------------------------------------|
G|----14^--14^--14^14p12---------------------------------------|
D|-----------------------14p12h14~~~---------------------------|
A|-------------------------------------------------------------|
E|-------------------------------------------------------------|


**
For the duet part, I think Syn used harmonist effect, instead of play the solo with Zacky.



This is my first tab, and Crimson Day is my favourite song in the new album, hope you enjoy it. =]
Tap to rate this tab
# A B C D E F G H I J K L M N O P Q R S T U V W X Y Z