Song name
# A B C D E F G H I J K L M N O P Q R S T U V W X Y Z

Avenged Sevenfold - Crimson Day tab

Crimson Day by Avenged Sevenfold Tab

My First tab, please take it easy =]
PS: I couldn't tab the starting of the solo because it's too fast, so it starts at
the bending time.


e|-------------------------------------------------------|
B|-19b-19b--19----17/15-17/19--19--17-----15--15h17------|
G|-------------------------------------------------------|
D|-------------------------------------------------------|
A|-------------------------------------------------------|
E|-------------------------------------------------------|


e|-------------------------------------------------------|
B|--17/13-13/17-17--17/15-15--13-13-12-12----------------|
G|-----------------------------------------14-14b--------| (not sure)
D|-------------------------------------------------------|
A|-------------------------------------------------------|
E|-------------------------------------------------------|


e|---------------------------|---------------------------|
B|---------------------------|15---------15---------15---|
G|--14-14b16-(hold it)-------|----14b16------14b16-------|
D|---------------------------|---------------------------|
A|---------------------------|---------------------------|
E|---------------------------|---------------------------|


e|-------------------------------------------------------|
B|-------------------------------------------------------|
G|--16r14p12---------------------------------------------|
D|---------------14/<------------------------------------|
A|-------------------------------------------------------|
E|-------------------------------------------------------|


e|-------------------------------------------------------|
B|----------------------------------15-13---12h13p12-----|
G|-----------------12--11--12--14------------------------|
D|-9--10--12--14-----------------------------------------|
A|-------------------------------------------------------|
E|-------------------------------------------------------|


e|-----------14--19--17--15------------------------------|
B|-------15------------------17--------------------------|
G|----16-------------------------------------------------|
D|-17----------------------------------------------------|
A|-------------------------------------------------------|
E|-------------------------------------------------------|


e|-------------------------------------------------------|
B|--15-15--13-13--12-12----------------------------------|
G|-----------------------14-14--12--14b16 (hold)---------|
D|-------------------------------------------------------|
A|-------------------------------------------------------|


e|------------------------------------------------------|
B|15---------15---------15------------------------------|
G|----14b16------14b16--------16r14p12------------------|
D|---------------------------------------14/<-----------|
A|------------------------------------------------------|
E|------------------------------------------------------|


Please rate, comment and help me fix wrong notes, thank you!
Tap to rate this tab
# A B C D E F G H I J K L M N O P Q R S T U V W X Y Z