Song name
# A B C D E F G H I J K L M N O P Q R S T U V W X Y Z

Average White Band - Pick Up The Pieces tab

Everything in Pick Up The Pieces is here except for the rests; I'm afraid you'll
have to put them in yourself...

e|----------------------------------------------|
B|----------------------------------------------|
G|------0---------------3-----1-------1---------| x2
D|--------3---1---0-------0-3---3-1-3---3-1-3---|
A|----3---------3---3---------------------------|
E|--4-------------------------------------------|

e|----------------------------------------------|
B|----------------------------------------------|
G|--1---0---------------3-----1-------1---------|
D|----3---3---1---0-------0-3---3-1-3---3-1-3---|
A|--------------3---3---------------------------|
E|----------------------------------------------|

Repeat all that is above once then continue:

e|---------------------------------------------------------------|
B|------------------------------------------------------------1--|
G|--3-1-3-1---3-1-3-1---3-1-3-1---3-1-3-1---3-1-3-1---3-1-3-1----|
D|----------3---------1---------3---------1---------3------------|
A|---------------------------------------------------------------|
E|---------------------------------------------------------------|

e|--------------------------|
B|----------------------1~--|
G|--3-1-3-1---3-1-3-1-------|
D|----------3---------1-----|
A|--------------------------|
E|--------------------------|

I think you repeat the whole thing then end on the second line...


Tap to rate this tab
# A B C D E F G H I J K L M N O P Q R S T U V W X Y Z