Song name
# A B C D E F G H I J K L M N O P Q R S T U V W X Y Z

Avicii - Heart Upon My Sleeve tab

Heart Upon My Sleeve by Avicii

Hey Guys
I learned the most of the intro to this song from the other tabs but I wanted to 
make my own because something was a little off. 
I'm not saying this will be 100% correct but I think it sounds pretty good.

Tuning: Standard

*Credit to Mattias Krantz for Part 1 (slightly altered by me)
The rest is my interpretation of the song

If you like it please rate and I'll do more. Thanks
-Chris Doan


Part 1:

e|---------------------------|--------------------------|----------------------|
B|----------------0h1p0------|--------------------------|--------0------0------|
G|---------0-------------2p0-|-------0-----0h2p0----0--|-----------------------|
D|------2-----2--------------|-----0---0----------4-----|------1-----1-----1---|
A|---3-----------------------|--------------------------|---2-----2------2-----|
E|---------------------------|--3-----------------------|----------------------|
 
e|---0---0----------|
B|---5---3----------|
G|-----------4/2-0--|
D|------------0-(0)-|
A|---3--------------|
E|------------------|

e|--------------------------|--------------------------|----------------------|
B|---------------0h1p0------|--------------------------|--------0------0------|
G|---------0------------2p0-|-------0----0h2p0-----0--|-----------------------|
D|------2-----2-------------|-----0---0---------4------|-----1------1-----1---|
A|---3----------------------|--------------------------|--2------2------2-----|
E|--------------------------|--3-----------------------|----------------------|
 

e|----------------|
B|-------0--------|
G|-------------4--|
D|----1--------1--|
A|-2--------2--2--|
E|----------------|

Part 2: Repeats twice

e|--------------------|--------------------|---------------------|--------------0--|
B|--------------0-----|---------------0----|----------------0----|------------3----|
G|--------0-----------|---------0----------|----------0----------|-------2---------|
D|-----2-----2--------|------2-----2-------|------0------0-------|----0----0-------|
A|--------------------|---3----------------|---------------------|-----------------|
E|---0----------------|--------------------|---3-----------------|--2--------------|

Part 3: Repeat Part 1 twice then for the final part strum the chord below 
e|----------------|
B|----------------|
G|---4------------|
D|---1------------|
A|---2------------|
E|----------------|

Part 4: Cello (Repeats x amount of times)
e|---------------------------------------------------------------|
B|---------------------------------------------------------------|
G|---------------------------------------------------------------|
D|---------2----------5----------4----------0--------------------|
A|-(2)(2)-(2)-(2)(2)-(2)-(2)(2)-(2)-(2)(2)-(2)-(2)(2)---2--3-----|
E|--0--0-------0--0-------0--0-------0--0-------0--0---(0)(0)----|

e|--------------------------------------------------------------------------------|
B|--------------------------------------------------------------------------------|
G|--------------------------------------------------------------------------------|
D|---------2----------5----------4----------0------------------------2------------|
A|-(2)(2)-(2)-(2)(2)-(2)-(2)(2)-(2)-(2)(2)-(2)-(2)(2)---2--3--2------2--(2)(2)----|
E|--0--0-------0--0-------0--0-------0--0-------0--0---(0)(0)(0)---0-----0--0-----|

e|--------------------------------------------|
B|--------------------------------------------|
G|--------------------------------------------|
D|--5----------4----------0-------------------|
A|-(2)-(2)(2)-(2)-(2)(2)-(2)-(2)(2)---2--3----|
E|------0--0-------0--0-------0--0---(0)(0)---|
Tap to rate this tab
# A B C D E F G H I J K L M N O P Q R S T U V W X Y Z