Song name
# A B C D E F G H I J K L M N O P Q R S T U V W X Y Z

Avril Lavigne - Runaway tab

 Avril Lavigne - Runaway


Verse
guitar 1
e|--------------------------------------|
B|--------------------------------------|
G|--5-5x--------------------------------|
D|--5-5x---5---3--3-3---5-5-------------| x8
A|--3-3x---5---3--3-3---5-5-------------|
E|---------3---1--1-1---3-3-------------|

Pre-chorus
Guitar 1
e|--------------------------------------|    e|----------------------|
B|--5-5---------------------------------|    B|----------------------|
G|--5-5x--------------------------------|    G|--5-------------------|
D|--5-5x---5---3--3-3---5-5-------------| x4 D|--5-5-11--5555555555--|
A|--3-3x---5---3--3-3---5-5-------------|    A|--3-3-11--5555555555--|  
E|---------3---1--1-1---3-3-------------|    E|--3-3-33--3333333333--|

                                             Guitar 2 
                                             e|----------------------|
                                             B|----------xxx8888888--|
                                             G|----------xxx9999999--|
               guitar 2 comes in -->         D|----------xxx9999999--|
                                             A|----------xxx7777777--|
                                             E|----------------------|
   

Chorus
guitar 1
e|----------------------------------------|
B|----------------------------------------|
G|------------55555555--------------------|
D|--77777777--55555555--3333333333333333--| x4
A|--77777777--33333333--3333333333333333--|
E|--55555555------------1111111111111111--|

guitar 2
e|--0000000--3333333---0000000-33333333---|
B|--5555555--5555555---5555555-55555555---|
G|--5555555--5555555---5555555-55555555---| x4
D|---------------------3333333-33333333---|
A|----------------------------------------|
E|----------------------------------------|

guitar 3
e|----7/8--8-8-8-8-8-8--8-8-8-8-8-8-8-----|
B|----------------------------------------|
G|----------------------------------------| x4
D|----------------------------------------|
A|----------------------------------------|
E|----------------------------------------|


Post-chorus
guitar 1
e|--------------------------------------|
B|--------------------------------------|
G|--5-5x--------------------------------|
D|--5-5x---5---3--3-3---5-5-------------| 
A|--3-3x---5---3--3-3---5-5-------------|
E|---------3---1--1-1---3-3-------------|

Verse
guitar 1
e|--------------------------------------|
B|--------------------------------------|
G|--5-5x--------------------------------|
D|--5-5x---5---3--3-3---5-5-------------| x4
A|--3-3x---5---3--3-3---5-5-------------|
E|---------3---1--1-1---3-3-------------|

Pre-chorus
Guitar 1
e|--------------------------------------|    e|----------------------|
B|--5-5---------------------------------|    B|----------------------|
G|--5-5x--------------------------------|    G|--5-------------------|
D|--5-5x---5---3--3-3---5-5-------------| x4 D|--5-5-11--2222222222--|
A|--3-3x---5---3--3-3---5-5-------------|    A|--3-3-11--2222222222--|  
E|---------3---1--1-1---3-3-------------|    E|--3-3-33--0000000000--|

                                             Guitar 2 
                                             e|----------------------|
                                             B|----------xxx8888888--|
                                             G|----------xxx9999999--|
               guitar 2 comes in -->         D|----------xxx9999999--|
                                             A|----------xxx7777777--|
                                             E|----------------------|

Chorus
guitar 1
e|----------------------------------------|
B|----------------------------------------|
G|------------55555555--------------------|
D|--77777777--55555555--3333333333333333--| x4
A|--77777777--33333333--3333333333333333--|
E|--55555555------------1111111111111111--|

guitar 2
e|--0000000--3333333---0000000-33333333---|
B|--5555555--5555555---5555555-55555555---|
G|--5555555--5555555---5555555-55555555---| x4
D|---------------------3333333-33333333---|
A|----------------------------------------|
E|----------------------------------------|

guitar 3
e|----7/8--8-8-8-8-8-8--8-8-8-8-8-8-8-----|
B|----------------------------------------|
G|----------------------------------------| x4
D|----------------------------------------|
A|----------------------------------------|
E|----------------------------------------|


Bridge 
guitar 2
e|--0000000--3333333---0000000-33333333---|
B|--5555555--5555555---5555555-55555555---|
G|--5555555--5555555---5555555-55555555---| 
D|---------------------3333333-33333333---| 
A|----------------------------------------| 
E|----------------------------------------|

guitar 2
e|--0000000--3333333---0000000-33333333---|
B|--5555555--5555555---5555555-55555555---|
G|--5555555--5555555---5555555-55555555---| 
D|---------------------3333333-33333333---| 
A|----------------------------------------| 
E|----------------------------------------|

guitar 2
e|--0000000--3333333---0000000-33333333---|
B|--5555555--5555555---5555555-55555555---|
G|--5555555--5555555---5555555-55555555---| 
D|---------------------3333333-33333333---| x2 
A|----------------------------------------| 
E|----------------------------------------|

guitar 1
e|--00000000------------3333333333333333--|
B|--11111111------------5555555555555555--|
G|--22222222--55555555--5555555555555555--|
D|--22222222--55555555--3333333333333333--| x2
A|--00000000--33333333--------------------|
E|----------------------------------------|

Chorus
guitar 1
e|----------------------------------------|
B|----------------------------------------|
G|------------55555555--------------------|
D|--77777777--55555555--3333333333333333--| x4
A|--77777777--33333333--3333333333333333--|
E|--55555555------------1111111111111111--|

guitar 2
e|--0000000--3333333---0000000-33333333---|
B|--5555555--5555555---5555555-55555555---|
G|--5555555--5555555---5555555-55555555---| x4
D|---------------------3333333-33333333---|
A|----------------------------------------|
E|----------------------------------------|

guitar 3
e|----7/8--8-8-8-8-8-8--8-8-8-8-8-8-8-----|
B|----------------------------------------|
G|----------------------------------------| x4
D|----------------------------------------|
A|----------------------------------------|
E|----------------------------------------|


Have fun ! :)
Tap to rate this tab
# A B C D E F G H I J K L M N O P Q R S T U V W X Y Z