Song name
# A B C D E F G H I J K L M N O P Q R S T U V W X Y Z

Avril Lavigne - Girlfriend chords

Highlighted       Show chord diagrams
Title: Girlfriend 
Artist: Avril Lavigne
Tabbed by: Mr3k

Intro
   D      B     G    D
e|-----|-----|-----|--------|
B|-----|-----|-----|--------|
G|-7---|--4--|-----|-7------|
D|-7---|--4--|-5---|-7------|
A|-5---|--2--|-5---|-5------|
E|-----|-----|-3---|--------|


Vers!

 |  D     A	B     G 	
e|-----|-----|-----|--------|
B|-----|-----|-----|--------|
G|-7---|-----|-----|--------|
D|-7---|-7---|-9---|-5------|
A|-5---|-7---|-9---|-5------|
E|-----|-5---|-7---|-3------|

Bridge

     B      F#    A     G
e|-------|-----|-----|-----|
B|-------|-----|-----|-----|
G|-------|-----|-----|-----|
D|-4-----|-----|-----|-----|
A|-2-----|-4---|-7---|-5---|
E|-------|-2---|-5---|-3---|

Refrain (Part A x2, Part B x1)

Part A:
 |  D     A	B     G 	
e|-----|-----|-----|--------|
B|-----|-----|-----|--------|
G|-7---|-----|-----|--------|
D|-7---|-7---|-9---|-5------|
A|-5---|-7---|-9---|-5------|
E|-----|-5---|-7---|-3------|

Part B:
 |  D     A	B     G       F#     G
e|-----|-----|-----|--------|-----|-----|
B|-----|-----|-----|--------|-----|-----|
G|-7---|-----|-----|--------|-----|-----|
D|-7---|-7---|-9---|-5------|-----|-----|
A|-5---|-7---|-9---|-5------|-4---|-5---|
E|-----|-5---|-7---|-3------|-2---|-3---|



Hey, hey, you, you, I don't like your girlfriend
No way, no way, I think you need a new one
 					DBGD
Hey, hey, you, you, I could be your girlfriend


Hey, hey, you, you, I know that you like me
No way, no way, you know it's not a secret
  					  DBGD
Hey, hey, you, you, I want to be your girlfriend

D
You're so fine, I want you mine, you're so delicious
A
I think about you all the time, you're so addictive
B
Don't you know what I can do to make you feel alright?
G
Alright, alright, alright

D
Don't pretend, I think you know I'm precious
A
And so yeah, I'm a hey, hey princess
B
I can tell you like me too and you know I'm right
G
I'm right, I'm right, I'm right

B
She's like so whatever
F#
You could do so much better
A
I think we should get together now
G
And that's what everybody?s talking about
D         A         B                 G
Hey, hey, you, you, I don't like your girlfriend
D       A       B                  G   
No way, no way, I think you need a new one
D         A         B               G           F# G
Hey, hey, you, you, I could be your girlfriend

Hey, hey, you, you, I know that you like me
No way, no way, you know it?s not a secret
Hey, hey, you, you, I want to be your girlfriend

I can see the way, I see the way you look at me
And even when you look away I know you think of me
I know you talk about me all the time again and again
And again and again and again

So come over here and tell me what I wanna hear
Better yet, make your girlfriend disappear
I don't wanna hear you say her name ever again
And again and again and again

?Cause she's like so whatever
And she could do so much better
I think we should get together now
And that's what everybody's talking about

Hey, hey, you, you, I don't like your girlfriend
No way, no way, I think you need a new one
Hey, hey, you, you, I could be your girlfriend

Hey, hey, you, you, I know that you like me
No way, no way, you know it's not a secret
Hey, hey, you, you, I want to be your girlfriend

Oh, in a second you'll be wrapped around my finger
Woo, 'cause I can, ?cause I can do it better
There's no other, so when's it gonna sink in?
Hey, she's so stupid, just what were you thinking?

In a second you'll be wrapped around my finger
'Cause I can, ?cause I can do it better
There's no other, so when's it gonna sink in?
She's so stupid, just what were you thinking?

Hey, hey, you, you, I don't like your girlfriend
No way, no way, I think you need a new one
Hey, hey, you, you, I could be your girlfriend
No way, no way

Hey, hey, I know that you like me
No way, no way, you know it's not a secret
Hey, hey, I want to be your girlfriend
No way, no way, no way, no way



Tap to rate this tab
 
# A B C D E F G H I J K L M N O P Q R S T U V W X Y Z