Song name
# A B C D E F G H I J K L M N O P Q R S T U V W X Y Z

Axel Rudi Pell - Under The Gun tab

Help us improve GuitareTab! Take a short survey!
		Axel Rudi Pell
		Under The Gun
	  From the album: "Shadow Zone"
----------------------------------------------------------------------------------
		Guitar tuned: Eb

Tabbed by: rockman85 (rockman85@jippii.fi)

Listen the song for timing and to find how many times
to play parts!!


Intro:
First play this 3 times	      Then end with this:
e----------------------------I----------------------------|
-----------------------------I----------------------------|
-----------------------------I----------------------------|
----7h9-11()-9()-7()---------I 7h9-11()-9()--66/77()------|
-----------------------------I----------------------------|
E----------------------------I----------------------------|

Riff2:   Two times:		          Then this:

e-----------------------------I-------------------------------------|
------------------------------I-------------------------------------|
------------------------------I-----------------------------7--9----|
------7-7--7-7--7---2-2--4----I--7-7--7-7--7--9-9--4-4--7---7--9----|
------7-7--7-7--7---2-2--4----I--7-7--7-7--7--9-9--4-4--7---5--7----|
E-----5-5--5-5--5---0-0--2----I--5-5--5-5--5--7-7--2-2--5-----------|

Chorus:		First time end with this:  Second time Part I + end with Part II:

e-----------------I---------------------I-----------------------|
------------------I---------------------I-----------------------|
------------------I---------------------I-----------------------|
--------7()--2()--I--------4()---9()----I-11()------------------|
--------7()--2()--I--------4()---9()----I-11()------------------|
E-------5()--0()--I--------2()---7()----I--9()------------------|
 two times			Part I		part II

Ending solo:

e-------------------------------------------------------------------|
--------------------------------------------------------------------|
-----------------------9/11-11-11-9-11---16b-16-18-18---------------|
-7/11()/--7/-9-9()-------------------------------------14/16 16 16--|
--------------------------------------------------------------------|
E-------------------------------------------------------------------|


e--------------------------------------------------------------------------|
---------------------------------------------------------------------------|
---------------------------------------------------------------------------|
-------------------7/9-9-11-9/---7/9-9-9-7-9--9/11-11-11-9-----------------|
-14/16-16 14 14()---------------------------------------------7/11-9-9/----|
E--------------------------------------------------------------------------|

this solo isn't 100% correct but you should find the idea
----------------------------------------------------------------------------------

Song goes:

Intro
verse (no guitars)
Intro
Riff 2
Chorus
Intro
Verse (no guitars)
Chorus
Solo (can't tab it out right now)
Chorus
Ending solo

After ending solo Axel plays something with wah-wah.....

() = let ring
b = bend
/ = slide
h = hammer on

If you find some mistakes, please let me know (except ending solo isn't perfect)
Related for Under The Gun tab