Guitaretab - guitar tabs
Song name
# A B C D E F G H I J K L M N O P Q R S T U V W X Y Z

Axis - Aklo Jiwan Ma tab

Adhuro Prem 
Singer: Axis Band
Contributed by : Daniel
Tab Worked by : Penlops

1st solo
e|-------------12^^------------------------------------------------------|
b|-15^^~~--13------(13)--15^^---15--13-----------------------------------|
g|---------------------------------------14---(14)------12---(12)---14~~-|
d|--------------------------------------------------14-------------------|
a|-----------------------------------------------------------------------|
e|-----------------------------------------------------------------------|

2nd solo
E|--------------------------------------------------------------------------|
B|---15^^-15^^15^^15^^15^^15^^15^^--15----12h13------13---------------------|
G|-----------------------------------------------14-----14-14--12--14-------|
D|---------------------------------------------------------------------14---|
A|--------------------------------------------------------------------------|
E|--------------------------------------------------------------------------|

E|------17--19-20-19-20-19-20-19--20^^--20-20-17-20--20--17--20--19----19----|
B|---17----------------------------------------------------------------------|
G|---------------------------------------------------------------------------|
D|---------------------------------------------------------------------------|
A|---------------------------------------------------------------------------|
E|---------------------------------------------------------------------------|

E|--17----17-----17-----17------17----------------------19------------|
B|-----20----20-----20------20------20--------------------20----------|
G|---------------------------------------19^^-19^^--17------19--21~~--|
D|--------------------------------------------------------------------|
A|--------------------------------------------------------------------|
E|--------------------------------------------------------------------|

BASS Part

G||--------------------|--------------------|--------------------|
D||--------------------|--------------------|--------------------|
A||--0-----------------|--3-----------------|--0-----------------|
E||---------1----------|---------3----------|---------1----------|

--------------------|--------------------|--------------------|
--------------------|--------------------|--------------------|
--3-----------------|--0-----------------|--3-----------------|
---------3----------|---------1----------|---------3----------|

--------------------|--------------------|--------------------|
--------------------|--------------------|--------------------|
--0-----------------|--3-----------------|--0-----------------|
---------1----------|---------3----------|---------1----------|

--------------------|--------------------|-----------------------------|
--------------------|--------------------|-----------------------------|
--3-----------------|--0-----------------|--3---3------------0/-12/-0--|
---------3----------|---------1----------|----------3----3-3-----------|

----------------------------|--------------------------|
----------------------------|--------------------------|
----------------------------|--3----3----3----3--3-----|
--5----5--x-5-x--5--5-5-3-3-|----------x---x-------3---|

----------------------------|---------------------------|
----------------------------|---------------------------|
----------------------------|--3----3----3----3--3------|
--5----5--x-5-x--5--5-5-3-3-|----------x---x-------3/-x-|

----------------------------|--------------------------|
----------------------------|--------------------------|
----------------------------|--3----3----3----3--3-----|
--5----5--x-5-x--5--5-5-3-3-|----------x---x-------3---|

----------------------------|--------------------------|
----------------------------|--------------------------|
----------------------------|--3----3----3----3--3-----|
--5----5--x-5-x--5--5-5-3-3-|----------x---x-------3---|

-------------------------|------------------------|----------------------|
-------------------------|------------------------|----------------------|
--0----0-0---------------|--3----x----------3--0--|--0----0-0------------|
-----------1----3--1--3--|----------3----3--------|-----------1----------|

-----------------------|--------------------|------------------------|
-----------------------|--------------------|------------------------|
--3--------------3--0--|--0-----------------|--3----x----------3--5/-|
---------3----3--------|---------1----------|----------3----5--------|

----------------------|---------------------|---------------------|
----------------------|---------------------|---------------------|
--0-------------------|--3----x-------------|--0----x-------------|
---------1----3----1--|----------3----------|----------1----------|

-----------------------|--------------------|-----------------------|
-----------------------|--------------------|-----------------------|
--3--------------5--3--|--0-----------------|--3--------------5--3--|
---------3----3--------|---------1----------|---------3----3--------|

--------------------|--------------------|--------------------|
--------------------|--------------------|--------------------|
--0-----------------|--3-----------------|--0-----------------|
---------1----------|---------3----------|---------1----------|

-----------------------------|----------------------------|
-----------------------------|----------------------------|
--3---3------------0/-12/-0--|----------------------------|
----------3----3-3-----------|--5----5--x-5-x--5--5-5-3-3-|

------------------------------|----------------------------|
------------------------------|----------------------------|
--3----3----3---------3-x-5/x-|----------------------------|
----------x---3-3-5-5---------|--5----5--x-5-x--5--5-5-3-3-|
[ Tab from: http://www.guitaretab.com/a/axis/80055.html ]
-----------------------------|----------------------------|
-----------------------------|----------------------------|
--3----3----3--------3-x-5/x-|----------------------------|
----------x---3-3-5----------|--5----5--x-5-x--5--5-5-3-3-|

------------------------------|----------------------------|
------------------------------|----------------------------|
--3----3----3---------3-x-5/x-|----------------------------|
----------x---3-3-5-5---------|--5----5--x-5-x--5--5-5-3-3-|

--------------------------|-----------------------|-----------------------|
--------------------------|-----------------------|-----------------------|
--3----3----3----3--3-----|--0--------------------|--3--------------3--0--|
----------x---x-------3---|---------1----3--1--3--|---------3----3--------|

--------------------|-----------------------|-------------------------|
--------------------|-----------------------|-------------------------|
--0-----------------|--3--------------3--0--|--0----0-0---------------|
---------1----------|---------3----3--------|-----------1----3--1--3--|

-------------------------|-------------------------|-------------------------|
-------------------------|-------------------------|-------------------------|
--3----3-3---------3--5/-|--0----0-0---------------|--3----3-3---------3--5/-|
-----------3----5--------|-----------1----3--1--3--|-----------3----5--------|

-------------------------|-------------------------|-------------------------|
-------------------------|-------------------------|-------------------------|
--0----0-0---------------|--3----3-3---------3--5/-|--0----0-0---------------|
-----------1----3--1--3--|-----------3----5--------|-----------1----3--1--3--|

---------------------------|-------------------|--------------------|
---------------------------|-------------------|--------------------|
--3----3-3-----------------|--0----------------|--0-----------------|
-----------3------3--3--3--|-------------------|---------1----------|

--------------------|--------------------|--------------------|
--------------------|--------------------|--------------------|
--3-----------------|--0-----------------|--3-----------------|
---------3----------|---------1----------|---------3----------|

--------------------|--------------------|--------------------|
--------------------|--------------------|--------------------|
--0-----------------|--3-----------------|--0-----------------|
---------1----------|---------3----------|---------1----------|

--------------------|--------------------|-----------------------------|
--------------------|--------------------|-----------------------------|
--3-----------------|--0-----------------|--3---3------------0/-12/-0--|
---------3----------|---------1----------|----------3----3-3-----------|

----------------------------|------------------------------|
----------------------------|------------------------------|
----------------------------|--3----3----3---------3-x-5/x-|
--5----5--x-5-x--5--5-5-3-3-|----------x---3-3-5-5---------|

----------------------------|-----------------------------|
----------------------------|-----------------------------|
----------------------------|--3----3----3--------3-x-5/x-|
--5----5--x-5-x--5--5-5-3-3-|----------x---3-3-5----------|

----------------------------|------------------------------|
----------------------------|------------------------------|
----------------------------|--3----3----3---------3-x-5/x-|
--5----5--x-5-x--5--5-5-3-3-|----------x---3-3-5-5---------|

----------------------------|--------------------------|
----------------------------|--------------------------|
----------------------------|--3----3----3----3--3-----|
--5----5--x-5-x--5--5-5-3-3-|----------x---x-------3---|

-------------------------|-------------------------|-------------------------|
-------------------------|-------------------------|-------------------------|
--0----0-0---------------|--3----3-3---------3--5/-|--0----0-0---------------|
-----------1----3--1--3--|-----------3----5--------|-----------1----3--1--3--|

-------------------------|-------------------------|-------------------------|
-------------------------|-------------------------|-------------------------|
--3----3-3---------3--5/-|--0----0-0---------------|--3----3-3---------3--5/-|
-----------3----5--------|-----------1----3--1--3--|-----------3----5--------|

-------------------------|---------------------------|-------------------|
-------------------------|---------------------------|-------------------|
--0----0-0---------------|--3----3-3-----------------|--0----------------|
-----------1----3--1--3--|-----------3------3--3--3--|-------------------|


Am      F           C          G
aklo jiwan ma kabal satha khojethe
Am      F            C            G
man ka kura sunau na timi lai rojethe
Am      F              C    G
mera sara maya timilai dine prayas garda
Am      F              C    G
aanjan ma timilai badhana pugechu
      Am                     C    
sayad tyo mutu ma mero nama koriyeko chaina
      Am                       C         Em    
sayad yo bhagya ma timro satha lekhiyeko chaina
    Am          F
adhuroooooooo o hooooooooo 
C  G 
mero prem 
    Am          F
adhuroooooooo o hooooooooo 
C  G 
mero prem 

chahanchu malai bhanthyau timi pani
maile timilai chaheko bhanda badi 
tara aja tyo bhawana bilin bhayo bhanchau
tyo kabal auta brama matra thiyo 
sayad tyo mutu ma mero nama koriyeko chaina
sayad yo bhagya ma timro satha lekhiyeko chaina
adhuroooooooo o hooooooooo 
mero prem 
adhuroooooooo o hooooooooo 
mero prem 
 
timro aasu rokna katti afai roye
timro muskan heri ma afai ramaunthe
soche ko thiye timilai aafno banai mera 
khusi sara deula peda haru samai
sayad tyo mutu ma mero nama koriyeko chaina
sayad yo bhagya ma timro satha lekhiyeko chaina
sayad tyo mutu ma mero nama koriyeko chaina
sayad yo bhagya ma timro satha lekhiyeko chaina
adhuroooooooo o hooooooooo 
adhuroooooooo o hooooooooo 
mero prem 
adhuroooooooo  hooooooooo 
mero prem
adhuroooooooo o hooooooooo
mero prem
กก
Related for Aklo Jiwan Ma tab
×
Aklo Jiwan Ma